ISO-10303-21;
HEADER;
FILE_DESCRIPTION (( 'STEP AP203' ),
    '1' );
FILE_NAME ('57785.step',
    '2021-11-01T10:35:25',
    ( '' ),
    ( '' ),
    'SwSTEP 2.0',
    'SolidWorks 2019',
    '' );
FILE_SCHEMA (( 'CONFIG_CONTROL_DESIGN' ));
ENDSEC;

DATA;
#1 = APPROVAL_ROLE ( '' ) ;
#2 = DIRECTION ( 'NONE',  ( -3.491481338843133355E-15, 1.224646799147353207E-16, -1.000000000000000000 ) ) ;
#3 = PLANE ( 'NONE',  #58 ) ;
#4 = DIRECTION ( 'NONE',  ( -4.285855558155652404E-31, -1.000000000000000000, -1.227517819005651305E-16 ) ) ;
#5 = AXIS2_PLACEMENT_3D ( 'NONE', #75, #95, #72 ) ;
#6 = PRODUCT_RELATED_PRODUCT_CATEGORY ( 'detail', '', ( #62 ) ) ;
#7 = DIRECTION ( 'NONE',  ( -3.491481338843133355E-15, 1.224646799147353207E-16, -1.000000000000000000 ) ) ;
#8 = FACE_OUTER_BOUND ( 'NONE', #68, .T. ) ;
#9 = CALENDAR_DATE ( 2021, 1, 11 ) ;
#10 = MANIFOLD_SOLID_BREP ( 'Corps-Déplacer/Copier1[2]', #111 ) ;
#11 = TOROIDAL_SURFACE ( 'NONE', #181, 8.849999999999999645, 8.000000000000000000 ) ;
#12 = EDGE_CURVE ( 'NONE', #129, #129, #116, .T. ) ;
#13 = PERSON_AND_ORGANIZATION_ROLE ( 'design_owner' ) ;
#14 = MANIFOLD_SOLID_BREP ( 'Corps-Déplacer/Copier1[1]', #169 ) ;
#15 = PERSON_AND_ORGANIZATION ( #57, #216 ) ;
#16 = APPLICATION_PROTOCOL_DEFINITION ( 'international standard', 'config_control_design', 1994, #91 ) ;
#17 = PRODUCT_DEFINITION ( 'UNKNOWN', '', #48, #107 ) ;
#18 = ORIENTED_EDGE ( 'NONE', *, *, #174, .F. ) ;
#19 = EDGE_LOOP ( 'NONE', ( #18 ) ) ;
#20 = ORIENTED_EDGE ( 'NONE', *, *, #174, .T. ) ;
#21 = SECURITY_CLASSIFICATION ( '', '', #118 ) ;
#22 = FACE_OUTER_BOUND ( 'NONE', #106, .T. ) ;
#23 = CARTESIAN_POINT ( 'NONE',  ( -6.413731847436034514E-31, 0.0000000000000000000, -1.836965810494968570E-16 ) ) ;
#24 = FACE_OUTER_BOUND ( 'NONE', #50, .T. ) ;
#25 = DIRECTION ( 'NONE',  ( 3.491481338843133355E-15, -1.227517819005651059E-16, 1.000000000000000000 ) ) ;
#26 = COORDINATED_UNIVERSAL_TIME_OFFSET ( 1, 0, .AHEAD. ) ;
#27 = CC_DESIGN_APPROVAL ( #146, ( #48 ) ) ;
#28 =( NAMED_UNIT ( * ) PLANE_ANGLE_UNIT ( ) SI_UNIT ( $, .RADIAN. ) );
#29 = PRODUCT_DEFINITION_SHAPE ( 'NONE', 'NONE',  #17 ) ;
#30 = DATE_AND_TIME ( #168, #192 ) ;
#31 = DIRECTION ( 'NONE',  ( 1.000000000000000000, 0.0000000000000000000, 0.0000000000000000000 ) ) ;
#32 = AXIS2_PLACEMENT_3D ( 'NONE', #213, #54, #55 ) ;
#33 = DATE_AND_TIME ( #187, #155 ) ;
#34 = ORIENTED_EDGE ( 'NONE', *, *, #35, .T. ) ;
#35 = EDGE_CURVE ( 'NONE', #43, #43, #220, .T. ) ;
#36 = ORIENTED_EDGE ( 'NONE', *, *, #222, .F. ) ;
#37 = LOCAL_TIME ( 11, 35, 25.00000000000000000, #156 ) ;
#38 = EDGE_LOOP ( 'NONE', ( #188 ) ) ;
#39 = EDGE_CURVE ( 'NONE', #80, #80, #83, .T. ) ;
#40 = CIRCLE ( 'NONE', #32, 0.8500000000000007550 ) ;
#41 = CARTESIAN_POINT ( 'NONE',  ( 1.316288464743861212E-13, -4.616918432785521081E-15, 37.69999999999999574 ) ) ;
#42 = APPLICATION_CONTEXT ( 'configuration controlled 3d designs of mechanical parts and assemblies' ) ;
#43 = VERTEX_POINT ( 'NONE', #100 ) ;
#44 = DIRECTION ( 'NONE',  ( 0.0000000000000000000, 1.000000000000000000, 0.0000000000000000000 ) ) ;
#45 = ADVANCED_FACE ( 'NONE', ( #22 ), #3, .T. ) ;
#46 = CARTESIAN_POINT ( 'NONE',  ( 1.780655482809997380E-14, -6.260340876928819068E-16, 5.099999999999998757 ) ) ;
#47 = PERSON_AND_ORGANIZATION_ROLE ( 'creator' ) ;
#48 = PRODUCT_DEFINITION_FORMATION_WITH_SPECIFIED_SOURCE ( 'ANY', '', #62, .NOT_KNOWN. ) ;
#49 = PERSON_AND_ORGANIZATION ( #57, #216 ) ;
#50 = EDGE_LOOP ( 'NONE', ( #206 ) ) ;
#51 = EDGE_LOOP ( 'NONE', ( #170 ) ) ;
#52 = DATE_AND_TIME ( #120, #37 ) ;
#53 = AXIS2_PLACEMENT_3D ( 'NONE', #88, #2, #215 ) ;
#54 = DIRECTION ( 'NONE',  ( 3.491481338843133355E-15, -1.227517819005651059E-16, 1.000000000000000000 ) ) ;
#55 = DIRECTION ( 'NONE',  ( 0.0000000000000000000, -1.000000000000000000, 0.0000000000000000000 ) ) ;
#56 = CARTESIAN_POINT ( 'NONE',  ( 0.0000000000000000000, 0.0000000000000000000, 0.0000000000000000000 ) ) ;
#57 = PERSON ( 'UNSPECIFIED', 'UNSPECIFIED', 'UNSPECIFIED', ('UNSPECIFIED'), ('UNSPECIFIED'), ('UNSPECIFIED') ) ;
#58 = AXIS2_PLACEMENT_3D ( 'NONE', #59, #193, #147 ) ;
#59 = CARTESIAN_POINT ( 'NONE',  ( 1.780655482809997696E-14, 1.124819836996386911E-32, 5.099999999999999645 ) ) ;
#60 =( NAMED_UNIT ( * ) SI_UNIT ( $, .STERADIAN. ) SOLID_ANGLE_UNIT ( ) );
#61 = APPROVAL_STATUS ( 'not_yet_approved' ) ;
#62 = PRODUCT ( '57785', '57785', '', ( #98 ) ) ;
#63 = APPROVAL_DATE_TIME ( #134, #146 ) ;
#64 = CC_DESIGN_PERSON_AND_ORGANIZATION_ASSIGNMENT ( #81, #104, ( #21 ) ) ;
#65 = CC_DESIGN_APPROVAL ( #87, ( #21 ) ) ;
#66 = CARTESIAN_POINT ( 'NONE',  ( 1.780655482809997380E-14, -0.8500000000000013101, 5.099999999999998757 ) ) ;
#67 = AXIS2_PLACEMENT_3D ( 'NONE', #179, #148, #164 ) ;
#68 = EDGE_LOOP ( 'NONE', ( #190 ) ) ;
#69 = EDGE_LOOP ( 'NONE', ( #157 ) ) ;
#70 = FACE_BOUND ( 'NONE', #105, .T. ) ;
#71 = ADVANCED_FACE ( 'NONE', ( #143, #108 ), #132, .T. ) ;
#72 = DIRECTION ( 'NONE',  ( -4.275831445896958607E-31, -1.000000000000000000, -1.224646799147353207E-16 ) ) ;
#73 = AXIS2_PLACEMENT_3D ( 'NONE', #23, #180, #4 ) ;
#74 = FACE_OUTER_BOUND ( 'NONE', #205, .T. ) ;
#75 = CARTESIAN_POINT ( 'NONE',  ( 1.780655482809997696E-14, 1.124819836996386911E-32, 5.099999999999999645 ) ) ;
#76 = FACE_OUTER_BOUND ( 'NONE', #51, .T. ) ;
#77 = CARTESIAN_POINT ( 'NONE',  ( -7.285954448864605145E-31, -0.8499999999999992006, -2.086780292309604877E-16 ) ) ;
#78 = ADVANCED_BREP_SHAPE_REPRESENTATION ( '57785', ( #14, #10, #208 ), #82 ) ;
#79 = COORDINATED_UNIVERSAL_TIME_OFFSET ( 1, 0, .AHEAD. ) ;
#80 = VERTEX_POINT ( 'NONE', #119 ) ;
#81 = PERSON_AND_ORGANIZATION ( #57, #216 ) ;
#82 =( GEOMETRIC_REPRESENTATION_CONTEXT ( 3 ) GLOBAL_UNCERTAINTY_ASSIGNED_CONTEXT ( ( #127 ) ) GLOBAL_UNIT_ASSIGNED_CONTEXT ( ( #184, #28, #60 ) ) REPRESENTATION_CONTEXT ( 'NONE', 'WORKASPACE' ) );
#83 = CIRCLE ( 'NONE', #176, 1.499999999999996669 ) ;
#84 = APPROVAL_ROLE ( '' ) ;
#85 = DATE_TIME_ROLE ( 'classification_date' ) ;
#86 = ORIENTED_EDGE ( 'NONE', *, *, #183, .T. ) ;
#87 = APPROVAL ( #173, 'UNSPECIFIED' ) ;
#88 = CARTESIAN_POINT ( 'NONE',  ( 1.326762908760390423E-13, -4.653657836759941941E-15, 38.00000000000000000 ) ) ;
#89 = DIRECTION ( 'NONE',  ( 3.491481338843133355E-15, -1.224646799147353207E-16, 1.000000000000000000 ) ) ;
#90 = PLANE ( 'NONE',  #67 ) ;
#91 = APPLICATION_CONTEXT ( 'configuration controlled 3d designs of mechanical parts and assemblies' ) ;
#92 = FACE_OUTER_BOUND ( 'NONE', #69, .T. ) ;
#93 = DIRECTION ( 'NONE',  ( 3.491481338843133355E-15, -1.227517819005651059E-16, 1.000000000000000000 ) ) ;
#94 = ADVANCED_FACE ( 'NONE', ( #191, #76 ), #11, .F. ) ;
#95 = DIRECTION ( 'NONE',  ( 3.491481338843133355E-15, -1.224646799147353207E-16, 1.000000000000000000 ) ) ;
#96 = PERSON_AND_ORGANIZATION_ROLE ( 'creator' ) ;
#97 = LOCAL_TIME ( 11, 35, 25.00000000000000000, #26 ) ;
#98 = MECHANICAL_CONTEXT ( 'NONE', #91, 'mechanical' ) ;
#99 = CC_DESIGN_PERSON_AND_ORGANIZATION_ASSIGNMENT ( #185, #13, ( #62 ) ) ;
#100 = CARTESIAN_POINT ( 'NONE',  ( 1.326762908760390423E-13, 1.199999999999991518, 38.00000000000000000 ) ) ;
#101 = APPROVAL_STATUS ( 'not_yet_approved' ) ;
#102 = CALENDAR_DATE ( 2021, 1, 11 ) ;
#103 = LOCAL_TIME ( 11, 35, 25.00000000000000000, #219 ) ;
#104 = PERSON_AND_ORGANIZATION_ROLE ( 'classification_officer' ) ;
#105 = EDGE_LOOP ( 'NONE', ( #34 ) ) ;
#106 = EDGE_LOOP ( 'NONE', ( #20 ) ) ;
#107 = DESIGN_CONTEXT ( 'detailed design', #42, 'design' ) ;
#108 = FACE_OUTER_BOUND ( 'NONE', #19, .T. ) ;
#109 = CARTESIAN_POINT ( 'NONE',  ( 1.326762908760390423E-13, -4.653657836759941941E-15, 38.00000000000000000 ) ) ;
#110 = DIRECTION ( 'NONE',  ( 0.0000000000000000000, -1.000000000000000000, 0.0000000000000000000 ) ) ;
#111 = CLOSED_SHELL ( 'NONE', ( #45, #71, #217 ) ) ;
#112 = DIRECTION ( 'NONE',  ( 3.491481338843133355E-15, -1.227517819005651059E-16, 1.000000000000000000 ) ) ;
#113 = PERSON_AND_ORGANIZATION ( #57, #216 ) ;
#114 = DIRECTION ( 'NONE',  ( 0.0000000000000000000, 0.0000000000000000000, 1.000000000000000000 ) ) ;
#115 = ADVANCED_FACE ( 'NONE', ( #8, #70 ), #201, .T. ) ;
#116 = CIRCLE ( 'NONE', #212, 1.499999999999994893 ) ;
#117 = PERSON_AND_ORGANIZATION ( #57, #216 ) ;
#118 = SECURITY_CLASSIFICATION_LEVEL ( 'unclassified' ) ;
#119 = CARTESIAN_POINT ( 'NONE',  ( 1.316288464743861212E-13, 1.499999999999992228, 37.69999999999999574 ) ) ;
#120 = CALENDAR_DATE ( 2021, 1, 11 ) ;
#121 = APPROVAL_PERSON_ORGANIZATION ( #15, #146, #165 ) ;
#122 = ORIENTED_EDGE ( 'NONE', *, *, #222, .T. ) ;
#123 = EDGE_LOOP ( 'NONE', ( #86 ) ) ;
#124 = AXIS2_PLACEMENT_3D ( 'NONE', #56, #160, #126 ) ;
#125 = DIRECTION ( 'NONE',  ( 0.0000000000000000000, 1.000000000000000000, 0.0000000000000000000 ) ) ;
#126 = DIRECTION ( 'NONE',  ( 4.275831445896958607E-31, 1.000000000000000000, 1.224646799147353207E-16 ) ) ;
#127 = UNCERTAINTY_MEASURE_WITH_UNIT (LENGTH_MEASURE( 1.000000000000000082E-05 ), #184, 'distance_accuracy_value', 'NONE');
#128 = DIRECTION ( 'NONE',  ( -3.491481338843133355E-15, 1.224646799147353207E-16, -1.000000000000000000 ) ) ;
#129 = VERTEX_POINT ( 'NONE', #194 ) ;
#130 = FACE_OUTER_BOUND ( 'NONE', #38, .T. ) ;
#131 = AXIS2_PLACEMENT_3D ( 'NONE', #161, #112, #144 ) ;
#132 = CYLINDRICAL_SURFACE ( 'NONE', #73, 0.8499999999999999778 ) ;
#133 = CARTESIAN_POINT ( 'NONE',  ( 1.780655482809997380E-14, -0.8500000000000013101, 5.099999999999998757 ) ) ;
#134 = DATE_AND_TIME ( #9, #103 ) ;
#135 = CIRCLE ( 'NONE', #139, 0.8500000000000007550 ) ;
#136 = VERTEX_POINT ( 'NONE', #66 ) ;
#137 = CC_DESIGN_DATE_AND_TIME_ASSIGNMENT ( #30, #218, ( #17 ) ) ;
#138 = PERSON_AND_ORGANIZATION ( #57, #216 ) ;
#139 = AXIS2_PLACEMENT_3D ( 'NONE', #46, #25, #110 ) ;
#140 = ADVANCED_FACE ( 'NONE', ( #195 ), #198, .F. ) ;
#141 = APPROVAL_PERSON_ORGANIZATION ( #138, #207, #84 ) ;
#142 = ADVANCED_FACE ( 'NONE', ( #24 ), #90, .F. ) ;
#143 = FACE_OUTER_BOUND ( 'NONE', #123, .T. ) ;
#144 = DIRECTION ( 'NONE',  ( -4.285855558155653280E-31, -1.000000000000000000, -1.227517819005651059E-16 ) ) ;
#145 = CC_DESIGN_APPROVAL ( #207, ( #17 ) ) ;
#146 = APPROVAL ( #61, 'UNSPECIFIED' ) ;
#147 = DIRECTION ( 'NONE',  ( -4.275831445896958607E-31, -1.000000000000000000, -1.224646799147353207E-16 ) ) ;
#148 = DIRECTION ( 'NONE',  ( -3.491481338843133355E-15, 1.224646799147353207E-16, -1.000000000000000000 ) ) ;
#149 = AXIS2_PLACEMENT_3D ( 'NONE', #211, #89, #210 ) ;
#150 = CARTESIAN_POINT ( 'NONE',  ( 0.0000000000000000000, 0.0000000000000000000, 0.0000000000000000000 ) ) ;
#151 = APPLICATION_PROTOCOL_DEFINITION ( 'international standard', 'config_control_design', 1994, #42 ) ;
#152 = DATE_AND_TIME ( #102, #97 ) ;
#153 = CIRCLE ( 'NONE', #131, 0.8499999999999992006 ) ;
#154 = VERTEX_POINT ( 'NONE', #133 ) ;
#155 = LOCAL_TIME ( 11, 35, 25.00000000000000000, #158 ) ;
#156 = COORDINATED_UNIVERSAL_TIME_OFFSET ( 1, 0, .AHEAD. ) ;
#157 = ORIENTED_EDGE ( 'NONE', *, *, #183, .F. ) ;
#158 = COORDINATED_UNIVERSAL_TIME_OFFSET ( 1, 0, .AHEAD. ) ;
#159 = CARTESIAN_POINT ( 'NONE',  ( 2.883516010942448074E-14, -3.877382746112936507E-16, 8.258718094417400124 ) ) ;
#160 = DIRECTION ( 'NONE',  ( -3.491481338843133355E-15, 1.224646799147353207E-16, -1.000000000000000000 ) ) ;
#161 = CARTESIAN_POINT ( 'NONE',  ( -3.642977224432303010E-31, -9.741282687068011222E-33, -1.043390146154802562E-16 ) ) ;
#162 = APPROVAL_PERSON_ORGANIZATION ( #49, #87, #1 ) ;
#163 = DIRECTION ( 'NONE',  ( 0.0000000000000000000, 1.000000000000000000, 0.0000000000000000000 ) ) ;
#164 = DIRECTION ( 'NONE',  ( 4.275831445896958607E-31, 1.000000000000000000, 1.224646799147353207E-16 ) ) ;
#165 = APPROVAL_ROLE ( '' ) ;
#166 = VERTEX_POINT ( 'NONE', #77 ) ;
#167 = CC_DESIGN_PERSON_AND_ORGANIZATION_ASSIGNMENT ( #113, #96, ( #17 ) ) ;
#168 = CALENDAR_DATE ( 2021, 1, 11 ) ;
#169 = CLOSED_SHELL ( 'NONE', ( #178, #115, #142, #94, #140 ) ) ;
#170 = ORIENTED_EDGE ( 'NONE', *, *, #12, .T. ) ;
#171 = SHAPE_DEFINITION_REPRESENTATION ( #29, #78 ) ;
#172 = EDGE_LOOP ( 'NONE', ( #122 ) ) ;
#173 = APPROVAL_STATUS ( 'not_yet_approved' ) ;
#174 = EDGE_CURVE ( 'NONE', #136, #136, #135, .T. ) ;
#175 = PLANE ( 'NONE',  #149 ) ;
#176 = AXIS2_PLACEMENT_3D ( 'NONE', #41, #128, #163 ) ;
#177 = DIRECTION ( 'NONE',  ( -4.348894832703450587E-31, -1.000000000000000000, -1.227517819005651059E-16 ) ) ;
#178 = ADVANCED_FACE ( 'NONE', ( #130, #74 ), #214, .T. ) ;
#179 = CARTESIAN_POINT ( 'NONE',  ( 1.326762908760390423E-13, 8.998558695971047118E-33, 38.00000000000000000 ) ) ;
#180 = DIRECTION ( 'NONE',  ( 3.491481338843133355E-15, -1.227517819005651059E-16, 1.000000000000000000 ) ) ;
#181 = AXIS2_PLACEMENT_3D ( 'NONE', #182, #93, #177 ) ;
#182 = CARTESIAN_POINT ( 'NONE',  ( 1.780655482809997380E-14, 0.0000000000000000000, 5.099999999999998757 ) ) ;
#183 = EDGE_CURVE ( 'NONE', #166, #166, #153, .T. ) ;
#184 =( LENGTH_UNIT ( ) NAMED_UNIT ( * ) SI_UNIT ( .MILLI., .METRE. ) );
#185 = PERSON_AND_ORGANIZATION ( #57, #216 ) ;
#186 = CC_DESIGN_PERSON_AND_ORGANIZATION_ASSIGNMENT ( #117, #202, ( #48 ) ) ;
#187 = CALENDAR_DATE ( 2021, 1, 11 ) ;
#188 = ORIENTED_EDGE ( 'NONE', *, *, #39, .T. ) ;
#189 = CC_DESIGN_SECURITY_CLASSIFICATION ( #21, ( #48 ) ) ;
#190 = ORIENTED_EDGE ( 'NONE', *, *, #39, .F. ) ;
#191 = FACE_OUTER_BOUND ( 'NONE', #172, .T. ) ;
#192 = LOCAL_TIME ( 11, 35, 25.00000000000000000, #79 ) ;
#193 = DIRECTION ( 'NONE',  ( 3.491481338843133355E-15, -1.224646799147353207E-16, 1.000000000000000000 ) ) ;
#194 = CARTESIAN_POINT ( 'NONE',  ( 2.883516010942448074E-14, 1.499999999999994449, 8.258718094417400124 ) ) ;
#195 = FACE_OUTER_BOUND ( 'NONE', #223, .T. ) ;
#196 = AXIS2_PLACEMENT_3D ( 'NONE', #109, #7, #44 ) ;
#197 = CC_DESIGN_DATE_AND_TIME_ASSIGNMENT ( #52, #85, ( #21 ) ) ;
#198 = PLANE ( 'NONE',  #5 ) ;
#199 = PERSON_AND_ORGANIZATION ( #57, #216 ) ;
#200 = CC_DESIGN_PERSON_AND_ORGANIZATION_ASSIGNMENT ( #199, #47, ( #48 ) ) ;
#201 = CONICAL_SURFACE ( 'NONE', #196, 1.199999999999995959, 0.7853981633974468357 ) ;
#202 = PERSON_AND_ORGANIZATION_ROLE ( 'design_supplier' ) ;
#203 = APPROVAL_DATE_TIME ( #152, #207 ) ;
#204 = APPROVAL_DATE_TIME ( #33, #87 ) ;
#205 = EDGE_LOOP ( 'NONE', ( #221 ) ) ;
#206 = ORIENTED_EDGE ( 'NONE', *, *, #35, .F. ) ;
#207 = APPROVAL ( #101, 'UNSPECIFIED' ) ;
#208 = AXIS2_PLACEMENT_3D ( 'NONE', #150, #114, #31 ) ;
#209 = DIRECTION ( 'NONE',  ( -3.491481338843133355E-15, 1.227517819005651059E-16, -1.000000000000000000 ) ) ;
#210 = DIRECTION ( 'NONE',  ( -4.275831445896958607E-31, -1.000000000000000000, -1.224646799147353207E-16 ) ) ;
#211 = CARTESIAN_POINT ( 'NONE',  ( -8.551680453529350800E-31, 2.999525725151307090E-32, -2.449298628175645296E-16 ) ) ;
#212 = AXIS2_PLACEMENT_3D ( 'NONE', #159, #209, #125 ) ;
#213 = CARTESIAN_POINT ( 'NONE',  ( 1.780655482809997380E-14, -6.260340876928819068E-16, 5.099999999999998757 ) ) ;
#214 = CYLINDRICAL_SURFACE ( 'NONE', #124, 1.499999999999994893 ) ;
#215 = DIRECTION ( 'NONE',  ( 0.0000000000000000000, 1.000000000000000000, 0.0000000000000000000 ) ) ;
#216 = ORGANIZATION ( 'UNSPECIFIED', 'UNSPECIFIED', '' ) ;
#217 = ADVANCED_FACE ( 'NONE', ( #92 ), #175, .F. ) ;
#218 = DATE_TIME_ROLE ( 'creation_date' ) ;
#219 = COORDINATED_UNIVERSAL_TIME_OFFSET ( 1, 0, .AHEAD. ) ;
#220 = CIRCLE ( 'NONE', #53, 1.199999999999995959 ) ;
#221 = ORIENTED_EDGE ( 'NONE', *, *, #12, .F. ) ;
#222 = EDGE_CURVE ( 'NONE', #154, #154, #40, .T. ) ;
#223 = EDGE_LOOP ( 'NONE', ( #36 ) ) ;
ENDSEC;
END-ISO-10303-21;
