ISO-10303-21;
HEADER;
FILE_DESCRIPTION (( 'STEP AP203' ),
    '1' );
FILE_NAME ('57722.step',
    '2021-10-08T05:54:04',
    ( '' ),
    ( '' ),
    'SwSTEP 2.0',
    'SolidWorks 2019',
    '' );
FILE_SCHEMA (( 'CONFIG_CONTROL_DESIGN' ));
ENDSEC;

DATA;
#1 =( GEOMETRIC_REPRESENTATION_CONTEXT ( 3 ) GLOBAL_UNCERTAINTY_ASSIGNED_CONTEXT ( ( #118 ) ) GLOBAL_UNIT_ASSIGNED_CONTEXT ( ( #66, #205, #150 ) ) REPRESENTATION_CONTEXT ( 'NONE', 'WORKASPACE' ) );
#2 = ADVANCED_FACE ( 'NONE', ( #210 ), #39, .F. ) ;
#3 = APPROVAL_STATUS ( 'not_yet_approved' ) ;
#4 = AXIS2_PLACEMENT_3D ( 'NONE', #45, #196, #182 ) ;
#5 = DATE_AND_TIME ( #188, #173 ) ;
#6 = ORIENTED_EDGE ( 'NONE', *, *, #137, .F. ) ;
#7 = PERSON_AND_ORGANIZATION ( #123, #144 ) ;
#8 = LOCAL_TIME ( 7, 54, 4.000000000000000000, #33 ) ;
#9 = DATE_AND_TIME ( #156, #193 ) ;
#10 = DIRECTION ( 'NONE',  ( 3.566536934050442231E-31, 1.000000000000000000, 1.003890900449542681E-16 ) ) ;
#11 = EDGE_LOOP ( 'NONE', ( #53 ) ) ;
#12 = VERTEX_POINT ( 'NONE', #74 ) ;
#13 = CARTESIAN_POINT ( 'NONE',  ( 3.142333204958820020E-14, 0.5399999999999997025, 9.000000000000000000 ) ) ;
#14 = PLANE ( 'NONE',  #174 ) ;
#15 = CC_DESIGN_PERSON_AND_ORGANIZATION_ASSIGNMENT ( #7, #104, ( #168 ) ) ;
#16 = FACE_OUTER_BOUND ( 'NONE', #105, .T. ) ;
#17 = CARTESIAN_POINT ( 'NONE',  ( 0.0000000000000000000, 0.0000000000000000000, 0.0000000000000000000 ) ) ;
#18 = EDGE_CURVE ( 'NONE', #27, #27, #164, .T. ) ;
#19 = DATE_AND_TIME ( #131, #47 ) ;
#20 = APPROVAL_ROLE ( '' ) ;
#21 = CC_DESIGN_APPROVAL ( #71, ( #146 ) ) ;
#22 = APPROVAL_ROLE ( '' ) ;
#23 = DIRECTION ( 'NONE',  ( 4.275831445896958607E-31, 1.000000000000000000, 1.224646799147353207E-16 ) ) ;
#24 = EDGE_LOOP ( 'NONE', ( #40 ) ) ;
#25 = DIRECTION ( 'NONE',  ( -3.491481338843133355E-15, 1.224646799147353207E-16, -1.000000000000000000 ) ) ;
#26 = DIRECTION ( 'NONE',  ( 3.491481338843133355E-15, -1.224646799147353207E-16, 1.000000000000000000 ) ) ;
#27 = VERTEX_POINT ( 'NONE', #93 ) ;
#28 = FACE_OUTER_BOUND ( 'NONE', #70, .T. ) ;
#29 = DIRECTION ( 'NONE',  ( 0.0000000000000000000, 1.000000000000000000, 0.0000000000000000000 ) ) ;
#30 = CIRCLE ( 'NONE', #97, 0.5400000000000008127 ) ;
#31 = PERSON_AND_ORGANIZATION ( #123, #144 ) ;
#32 = APPROVAL ( #171, 'UNSPECIFIED' ) ;
#33 = COORDINATED_UNIVERSAL_TIME_OFFSET ( 1, 0, .AHEAD. ) ;
#34 = PERSON_AND_ORGANIZATION ( #123, #144 ) ;
#35 = PERSON_AND_ORGANIZATION ( #123, #144 ) ;
#36 = APPLICATION_CONTEXT ( 'configuration controlled 3d designs of mechanical parts and assemblies' ) ;
#37 = ORIENTED_EDGE ( 'NONE', *, *, #132, .T. ) ;
#38 = DATE_TIME_ROLE ( 'classification_date' ) ;
#39 = PLANE ( 'NONE',  #189 ) ;
#40 = ORIENTED_EDGE ( 'NONE', *, *, #137, .T. ) ;
#41 = DIRECTION ( 'NONE',  ( 0.0000000000000000000, 1.000000000000000000, 0.0000000000000000000 ) ) ;
#42 = FACE_OUTER_BOUND ( 'NONE', #215, .T. ) ;
#43 = CONICAL_SURFACE ( 'NONE', #148, 0.5500000000000000444, 0.7853981633974516097 ) ;
#44 = VERTEX_POINT ( 'NONE', #58 ) ;
#45 = CARTESIAN_POINT ( 'NONE',  ( 1.088536153059895049E-15, -3.818070859409701304E-17, 0.3117691453624009124 ) ) ;
#46 = DIRECTION ( 'NONE',  ( -3.491481338843133355E-15, 1.224646799147353207E-16, -1.000000000000000000 ) ) ;
#47 = LOCAL_TIME ( 7, 54, 4.000000000000000000, #116 ) ;
#48 = SHAPE_DEFINITION_REPRESENTATION ( #212, #64 ) ;
#49 = CIRCLE ( 'NONE', #56, 0.7500000000000001110 ) ;
#50 = DIRECTION ( 'NONE',  ( 1.000000000000000000, 0.0000000000000000000, 0.0000000000000000000 ) ) ;
#51 = DIRECTION ( 'NONE',  ( 0.0000000000000000000, 0.0000000000000000000, 1.000000000000000000 ) ) ;
#52 = APPROVAL_STATUS ( 'not_yet_approved' ) ;
#53 = ORIENTED_EDGE ( 'NONE', *, *, #89, .F. ) ;
#54 = CALENDAR_DATE ( 2021, 8, 10 ) ;
#55 = PRODUCT_RELATED_PRODUCT_CATEGORY ( 'detail', '', ( #207 ) ) ;
#56 = AXIS2_PLACEMENT_3D ( 'NONE', #80, #46, #29 ) ;
#57 = CARTESIAN_POINT ( 'NONE',  ( 1.047444401652940007E-13, 4.124339402320052999E-33, 30.00000000000000000 ) ) ;
#58 = CARTESIAN_POINT ( 'NONE',  ( 1.047444401652940007E-13, 0.5499999999999963807, 30.00000000000000000 ) ) ;
#59 = CARTESIAN_POINT ( 'NONE',  ( 3.142333204958820020E-14, 4.049351413187005415E-33, 9.000000000000000000 ) ) ;
#60 = FACE_OUTER_BOUND ( 'NONE', #91, .T. ) ;
#61 = DIRECTION ( 'NONE',  ( 4.275831445896957731E-31, 1.000000000000000000, 1.224646799147352961E-16 ) ) ;
#62 = CLOSED_SHELL ( 'NONE', ( #175, #185, #170, #122, #2 ) ) ;
#63 = DESIGN_CONTEXT ( 'detailed design', #36, 'design' ) ;
#64 = ADVANCED_BREP_SHAPE_REPRESENTATION ( '57722', ( #145, #78, #114 ), #1 ) ;
#65 = MECHANICAL_CONTEXT ( 'NONE', #187, 'mechanical' ) ;
#66 =( LENGTH_UNIT ( ) NAMED_UNIT ( * ) SI_UNIT ( .MILLI., .METRE. ) );
#67 = DATE_AND_TIME ( #149, #8 ) ;
#68 = PERSON_AND_ORGANIZATION_ROLE ( 'design_supplier' ) ;
#69 = CONICAL_SURFACE ( 'NONE', #183, 0.7499999999999975575, 0.5235987755982911551 ) ;
#70 = EDGE_LOOP ( 'NONE', ( #158 ) ) ;
#71 = APPROVAL ( #52, 'UNSPECIFIED' ) ;
#72 = ORIENTED_EDGE ( 'NONE', *, *, #217, .T. ) ;
#73 = AXIS2_PLACEMENT_3D ( 'NONE', #184, #166, #177 ) ;
#74 = CARTESIAN_POINT ( 'NONE',  ( 3.269329089482473308E-14, 0.7499999999999963363, 9.363730669589465094 ) ) ;
#75 = DIRECTION ( 'NONE',  ( -3.491481338843133355E-15, 1.224646799147353207E-16, -1.000000000000000000 ) ) ;
#76 = CC_DESIGN_APPROVAL ( #81, ( #136 ) ) ;
#77 = PLANE ( 'NONE',  #155 ) ;
#78 = MANIFOLD_SOLID_BREP ( 'Corps-Déplacer/Copier1[2]', #140 ) ;
#79 = VERTEX_POINT ( 'NONE', #139 ) ;
#80 = CARTESIAN_POINT ( 'NONE',  ( 1.040461438975253740E-13, -3.649447461459112464E-15, 29.80000000000000071 ) ) ;
#81 = APPROVAL ( #3, 'UNSPECIFIED' ) ;
#82 = COORDINATED_UNIVERSAL_TIME_OFFSET ( 1, 0, .AHEAD. ) ;
#83 = PERSON_AND_ORGANIZATION ( #123, #144 ) ;
#84 = ORIENTED_EDGE ( 'NONE', *, *, #89, .T. ) ;
#85 = PERSON_AND_ORGANIZATION ( #123, #144 ) ;
#86 = EDGE_LOOP ( 'NONE', ( #72 ) ) ;
#87 = COORDINATED_UNIVERSAL_TIME_OFFSET ( 1, 0, .AHEAD. ) ;
#88 = LOCAL_TIME ( 7, 54, 4.000000000000000000, #211 ) ;
#89 = EDGE_CURVE ( 'NONE', #160, #160, #198, .T. ) ;
#90 = CARTESIAN_POINT ( 'NONE',  ( 1.088536153059895049E-15, -3.818070859409701304E-17, 0.3117691453624009124 ) ) ;
#91 = EDGE_LOOP ( 'NONE', ( #37 ) ) ;
#92 = APPROVAL_PERSON_ORGANIZATION ( #83, #71, #20 ) ;
#93 = CARTESIAN_POINT ( 'NONE',  ( 1.088536153059895247E-15, 0.5399999999999991473, 0.3117691453624009679 ) ) ;
#94 = EDGE_CURVE ( 'NONE', #12, #12, #120, .T. ) ;
#95 = FACE_BOUND ( 'NONE', #11, .T. ) ;
#96 = DIRECTION ( 'NONE',  ( 0.0000000000000000000, 1.000000000000000000, 0.0000000000000000000 ) ) ;
#97 = AXIS2_PLACEMENT_3D ( 'NONE', #179, #25, #141 ) ;
#98 = DIRECTION ( 'NONE',  ( -3.491481338843133355E-15, 1.224646799147353207E-16, -1.000000000000000000 ) ) ;
#99 = CYLINDRICAL_SURFACE ( 'NONE', #159, 0.7499999999999987788 ) ;
#100 = APPROVAL_PERSON_ORGANIZATION ( #31, #81, #204 ) ;
#101 = CC_DESIGN_PERSON_AND_ORGANIZATION_ASSIGNMENT ( #34, #103, ( #136 ) ) ;
#102 = CC_DESIGN_APPROVAL ( #32, ( #168 ) ) ;
#103 = PERSON_AND_ORGANIZATION_ROLE ( 'creator' ) ;
#104 = PERSON_AND_ORGANIZATION_ROLE ( 'classification_officer' ) ;
#105 = EDGE_LOOP ( 'NONE', ( #84 ) ) ;
#106 = PERSON_AND_ORGANIZATION ( #123, #144 ) ;
#107 = EDGE_LOOP ( 'NONE', ( #214 ) ) ;
#108 = CONICAL_SURFACE ( 'NONE', #4, 0.5399999999999991473, 1.047197551196592968 ) ;
#109 = ORIENTED_EDGE ( 'NONE', *, *, #217, .F. ) ;
#110 = FACE_OUTER_BOUND ( 'NONE', #172, .T. ) ;
#111 = DIRECTION ( 'NONE',  ( -4.275831445896958607E-31, -1.000000000000000000, -1.224646799147353207E-16 ) ) ;
#112 = FACE_OUTER_BOUND ( 'NONE', #107, .T. ) ;
#113 = DIRECTION ( 'NONE',  ( 3.491481338843133355E-15, -1.224646799147353207E-16, 1.000000000000000000 ) ) ;
#114 = AXIS2_PLACEMENT_3D ( 'NONE', #147, #51, #50 ) ;
#115 = CARTESIAN_POINT ( 'NONE',  ( 3.142333204958820020E-14, 4.049351413187005415E-33, 9.000000000000000000 ) ) ;
#116 = COORDINATED_UNIVERSAL_TIME_OFFSET ( 1, 0, .AHEAD. ) ;
#117 = CC_DESIGN_DATE_AND_TIME_ASSIGNMENT ( #191, #38, ( #168 ) ) ;
#118 = UNCERTAINTY_MEASURE_WITH_UNIT (LENGTH_MEASURE( 1.000000000000000082E-05 ), #66, 'distance_accuracy_value', 'NONE');
#119 = DATE_TIME_ROLE ( 'creation_date' ) ;
#120 = CIRCLE ( 'NONE', #73, 0.7499999999999975575 ) ;
#121 = DIRECTION ( 'NONE',  ( -3.491481338843133355E-15, 1.224646799147353207E-16, -1.000000000000000000 ) ) ;
#122 = ADVANCED_FACE ( 'NONE', ( #42, #200 ), #43, .T. ) ;
#123 = PERSON ( 'UNSPECIFIED', 'UNSPECIFIED', 'UNSPECIFIED', ('UNSPECIFIED'), ('UNSPECIFIED'), ('UNSPECIFIED') ) ;
#124 = CIRCLE ( 'NONE', #203, 0.5500000000000000444 ) ;
#125 = AXIS2_PLACEMENT_3D ( 'NONE', #90, #157, #10 ) ;
#126 = DIRECTION ( 'NONE',  ( -3.491481338843133355E-15, 1.224646799147353207E-16, -1.000000000000000000 ) ) ;
#127 = FACE_OUTER_BOUND ( 'NONE', #176, .T. ) ;
#128 = APPROVAL_DATE_TIME ( #9, #32 ) ;
#129 = APPLICATION_PROTOCOL_DEFINITION ( 'international standard', 'config_control_design', 1994, #187 ) ;
#130 = APPROVAL_DATE_TIME ( #19, #81 ) ;
#131 = CALENDAR_DATE ( 2021, 8, 10 ) ;
#132 = EDGE_CURVE ( 'NONE', #79, #79, #30, .T. ) ;
#133 = ORIENTED_EDGE ( 'NONE', *, *, #18, .T. ) ;
#134 = CARTESIAN_POINT ( 'NONE',  ( 3.142333204958820020E-14, -1.102182119232617714E-15, 9.000000000000000000 ) ) ;
#135 = ORIENTED_EDGE ( 'NONE', *, *, #94, .T. ) ;
#136 = PRODUCT_DEFINITION_FORMATION_WITH_SPECIFIED_SOURCE ( 'ANY', '', #207, .NOT_KNOWN. ) ;
#137 = EDGE_CURVE ( 'NONE', #218, #218, #49, .T. ) ;
#138 = DIRECTION ( 'NONE',  ( 3.491481338843133355E-15, -1.224646799147353207E-16, 1.000000000000000000 ) ) ;
#139 = CARTESIAN_POINT ( 'NONE',  ( 3.142333204958820020E-14, 0.5399999999999997025, 9.000000000000000000 ) ) ;
#140 = CLOSED_SHELL ( 'NONE', ( #201, #213, #162 ) ) ;
#141 = DIRECTION ( 'NONE',  ( 0.0000000000000000000, 1.000000000000000000, 0.0000000000000000000 ) ) ;
#142 = CARTESIAN_POINT ( 'NONE',  ( 1.047444401652940007E-13, -3.673940397442059178E-15, 30.00000000000000000 ) ) ;
#143 = FACE_OUTER_BOUND ( 'NONE', #151, .T. ) ;
#144 = ORGANIZATION ( 'UNSPECIFIED', 'UNSPECIFIED', '' ) ;
#145 = MANIFOLD_SOLID_BREP ( 'Corps-Déplacer/Copier1[1]', #62 ) ;
#146 = PRODUCT_DEFINITION ( 'UNKNOWN', '', #136, #63 ) ;
#147 = CARTESIAN_POINT ( 'NONE',  ( 0.0000000000000000000, 0.0000000000000000000, 0.0000000000000000000 ) ) ;
#148 = AXIS2_PLACEMENT_3D ( 'NONE', #142, #126, #96 ) ;
#149 = CALENDAR_DATE ( 2021, 8, 10 ) ;
#150 =( NAMED_UNIT ( * ) SI_UNIT ( $, .STERADIAN. ) SOLID_ANGLE_UNIT ( ) );
#151 = EDGE_LOOP ( 'NONE', ( #135 ) ) ;
#152 = SECURITY_CLASSIFICATION_LEVEL ( 'unclassified' ) ;
#153 = CC_DESIGN_PERSON_AND_ORGANIZATION_ASSIGNMENT ( #169, #68, ( #136 ) ) ;
#154 = ORIENTED_EDGE ( 'NONE', *, *, #94, .F. ) ;
#155 = AXIS2_PLACEMENT_3D ( 'NONE', #59, #26, #111 ) ;
#156 = CALENDAR_DATE ( 2021, 8, 10 ) ;
#157 = DIRECTION ( 'NONE',  ( -3.491481338843133355E-15, 1.224646799147353207E-16, -1.000000000000000000 ) ) ;
#158 = ORIENTED_EDGE ( 'NONE', *, *, #18, .F. ) ;
#159 = AXIS2_PLACEMENT_3D ( 'NONE', #17, #199, #195 ) ;
#160 = VERTEX_POINT ( 'NONE', #13 ) ;
#161 = DIRECTION ( 'NONE',  ( -4.275831445896958607E-31, -1.000000000000000000, -1.224646799147353207E-16 ) ) ;
#162 = ADVANCED_FACE ( 'NONE', ( #112 ), #14, .T. ) ;
#163 = DIRECTION ( 'NONE',  ( 0.0000000000000000000, 1.000000000000000000, 0.0000000000000000000 ) ) ;
#164 = CIRCLE ( 'NONE', #125, 0.5399999999999991473 ) ;
#165 = CARTESIAN_POINT ( 'NONE',  ( 1.047444401652940007E-13, -3.673940397442059178E-15, 30.00000000000000000 ) ) ;
#166 = DIRECTION ( 'NONE',  ( -3.491481338843133355E-15, 1.224646799147353207E-16, -1.000000000000000000 ) ) ;
#167 = PERSON_AND_ORGANIZATION_ROLE ( 'design_owner' ) ;
#168 = SECURITY_CLASSIFICATION ( '', '', #152 ) ;
#169 = PERSON_AND_ORGANIZATION ( #123, #144 ) ;
#170 = ADVANCED_FACE ( 'NONE', ( #110, #221 ), #99, .T. ) ;
#171 = APPROVAL_STATUS ( 'not_yet_approved' ) ;
#172 = EDGE_LOOP ( 'NONE', ( #154 ) ) ;
#173 = LOCAL_TIME ( 7, 54, 4.000000000000000000, #82 ) ;
#174 = AXIS2_PLACEMENT_3D ( 'NONE', #115, #113, #161 ) ;
#175 = ADVANCED_FACE ( 'NONE', ( #16 ), #77, .F. ) ;
#176 = EDGE_LOOP ( 'NONE', ( #133 ) ) ;
#177 = DIRECTION ( 'NONE',  ( 0.0000000000000000000, 1.000000000000000000, 0.0000000000000000000 ) ) ;
#178 = APPROVAL_PERSON_ORGANIZATION ( #106, #32, #22 ) ;
#179 = CARTESIAN_POINT ( 'NONE',  ( 3.142333204958820020E-14, -1.102182119232617714E-15, 9.000000000000000000 ) ) ;
#180 = CC_DESIGN_DATE_AND_TIME_ASSIGNMENT ( #67, #119, ( #146 ) ) ;
#181 = CARTESIAN_POINT ( 'NONE',  ( 1.040461438975253740E-13, 0.7499999999999964473, 29.80000000000000071 ) ) ;
#182 = DIRECTION ( 'NONE',  ( -3.566536934050442231E-31, -1.000000000000000000, -1.003890900449542681E-16 ) ) ;
#183 = AXIS2_PLACEMENT_3D ( 'NONE', #222, #138, #219 ) ;
#184 = CARTESIAN_POINT ( 'NONE',  ( 3.269329089482473308E-14, -1.146726279259063852E-15, 9.363730669589465094 ) ) ;
#185 = ADVANCED_FACE ( 'NONE', ( #95, #143 ), #69, .T. ) ;
#186 = APPROVAL_DATE_TIME ( #5, #71 ) ;
#187 = APPLICATION_CONTEXT ( 'configuration controlled 3d designs of mechanical parts and assemblies' ) ;
#188 = CALENDAR_DATE ( 2021, 8, 10 ) ;
#189 = AXIS2_PLACEMENT_3D ( 'NONE', #57, #121, #23 ) ;
#190 = PERSON_AND_ORGANIZATION_ROLE ( 'creator' ) ;
#191 = DATE_AND_TIME ( #54, #88 ) ;
#192 = EDGE_LOOP ( 'NONE', ( #109 ) ) ;
#193 = LOCAL_TIME ( 7, 54, 4.000000000000000000, #87 ) ;
#194 = DIRECTION ( 'NONE',  ( -3.491481338843133355E-15, 1.224646799147353207E-16, -1.000000000000000000 ) ) ;
#195 = DIRECTION ( 'NONE',  ( 4.275831445896959482E-31, 1.000000000000000000, 1.224646799147353207E-16 ) ) ;
#196 = DIRECTION ( 'NONE',  ( 3.491481338843133355E-15, -1.224646799147353207E-16, 1.000000000000000000 ) ) ;
#197 = CC_DESIGN_PERSON_AND_ORGANIZATION_ASSIGNMENT ( #85, #167, ( #207 ) ) ;
#198 = CIRCLE ( 'NONE', #209, 0.5400000000000008127 ) ;
#199 = DIRECTION ( 'NONE',  ( -3.491481338843133355E-15, 1.224646799147353207E-16, -1.000000000000000000 ) ) ;
#200 = FACE_BOUND ( 'NONE', #86, .T. ) ;
#201 = ADVANCED_FACE ( 'NONE', ( #127 ), #108, .T. ) ;
#202 = CYLINDRICAL_SURFACE ( 'NONE', #216, 0.5399999999999999245 ) ;
#203 = AXIS2_PLACEMENT_3D ( 'NONE', #165, #75, #41 ) ;
#204 = APPROVAL_ROLE ( '' ) ;
#205 =( NAMED_UNIT ( * ) PLANE_ANGLE_UNIT ( ) SI_UNIT ( $, .RADIAN. ) );
#206 = CC_DESIGN_PERSON_AND_ORGANIZATION_ASSIGNMENT ( #35, #190, ( #146 ) ) ;
#207 = PRODUCT ( '57722', '57722', '', ( #65 ) ) ;
#208 = APPLICATION_PROTOCOL_DEFINITION ( 'international standard', 'config_control_design', 1994, #36 ) ;
#209 = AXIS2_PLACEMENT_3D ( 'NONE', #134, #194, #163 ) ;
#210 = FACE_OUTER_BOUND ( 'NONE', #192, .T. ) ;
#211 = COORDINATED_UNIVERSAL_TIME_OFFSET ( 1, 0, .AHEAD. ) ;
#212 = PRODUCT_DEFINITION_SHAPE ( 'NONE', 'NONE',  #146 ) ;
#213 = ADVANCED_FACE ( 'NONE', ( #28, #60 ), #202, .T. ) ;
#214 = ORIENTED_EDGE ( 'NONE', *, *, #132, .F. ) ;
#215 = EDGE_LOOP ( 'NONE', ( #6 ) ) ;
#216 = AXIS2_PLACEMENT_3D ( 'NONE', #223, #98, #61 ) ;
#217 = EDGE_CURVE ( 'NONE', #44, #44, #124, .T. ) ;
#218 = VERTEX_POINT ( 'NONE', #181 ) ;
#219 = DIRECTION ( 'NONE',  ( 0.0000000000000000000, -1.000000000000000000, 0.0000000000000000000 ) ) ;
#220 = CC_DESIGN_SECURITY_CLASSIFICATION ( #168, ( #136 ) ) ;
#221 = FACE_OUTER_BOUND ( 'NONE', #24, .T. ) ;
#222 = CARTESIAN_POINT ( 'NONE',  ( 3.269329089482473308E-14, -1.146726279259063852E-15, 9.363730669589465094 ) ) ;
#223 = CARTESIAN_POINT ( 'NONE',  ( 0.0000000000000000000, 0.0000000000000000000, 0.0000000000000000000 ) ) ;
ENDSEC;
END-ISO-10303-21;
