ISO-10303-21;
HEADER;
FILE_DESCRIPTION (( 'STEP AP203' ),
    '1' );
FILE_NAME ('57717.step',
    '2021-11-30T06:45:02',
    ( '' ),
    ( '' ),
    'SwSTEP 2.0',
    'SolidWorks 2019',
    '' );
FILE_SCHEMA (( 'CONFIG_CONTROL_DESIGN' ));
ENDSEC;

DATA;
#1 = DIRECTION ( 'NONE',  ( 3.491481338843133355E-15, -1.224646799147353207E-16, 1.000000000000000000 ) ) ;
#2 = AXIS2_PLACEMENT_3D ( 'NONE', #281, #12, #213 ) ;
#3 = DIRECTION ( 'NONE',  ( -3.491481338843133355E-15, 1.224646799147353207E-16, -1.000000000000000000 ) ) ;
#4 = ADVANCED_FACE ( 'NONE', ( #131 ), #105, .T. ) ;
#5 = VERTEX_POINT ( 'NONE', #92 ) ;
#6 = PLANE ( 'NONE',  #157 ) ;
#7 = DIRECTION ( 'NONE',  ( 0.0000000000000000000, 1.000000000000000000, 0.0000000000000000000 ) ) ;
#8 = AXIS2_PLACEMENT_3D ( 'NONE', #151, #95, #24 ) ;
#9 = DIRECTION ( 'NONE',  ( 4.275831445896958607E-31, 1.000000000000000000, 1.224646799147353207E-16 ) ) ;
#10 = DIRECTION ( 'NONE',  ( -3.491481338843133355E-15, 1.224646799147353207E-16, -1.000000000000000000 ) ) ;
#11 = APPROVAL_STATUS ( 'not_yet_approved' ) ;
#12 = DIRECTION ( 'NONE',  ( -3.491481338843133355E-15, 1.224646799147353207E-16, -1.000000000000000000 ) ) ;
#13 = CLOSED_SHELL ( 'NONE', ( #56, #99, #87, #4 ) ) ;
#14 = FACE_OUTER_BOUND ( 'NONE', #271, .T. ) ;
#15 = EDGE_LOOP ( 'NONE', ( #110 ) ) ;
#16 = AXIS2_PLACEMENT_3D ( 'NONE', #258, #172, #52 ) ;
#17 = DIRECTION ( 'NONE',  ( 3.491481338843133355E-15, -1.224646799147353207E-16, 1.000000000000000000 ) ) ;
#18 = EDGE_LOOP ( 'NONE', ( #267 ) ) ;
#19 = ORIENTED_EDGE ( 'NONE', *, *, #221, .T. ) ;
#20 = AXIS2_PLACEMENT_3D ( 'NONE', #112, #89, #162 ) ;
#21 = CC_DESIGN_APPROVAL ( #300, ( #42 ) ) ;
#22 = PLANE ( 'NONE',  #103 ) ;
#23 = DESIGN_CONTEXT ( 'detailed design', #124, 'design' ) ;
#24 = DIRECTION ( 'NONE',  ( 4.275831445896958607E-31, 1.000000000000000000, 1.224646799147353454E-16 ) ) ;
#25 = CARTESIAN_POINT ( 'NONE',  ( 7.553631070201347360E-14, -2.649457125589892030E-15, 21.63445923701876339 ) ) ;
#26 = DIRECTION ( 'NONE',  ( 0.0000000000000000000, 1.000000000000000000, 0.0000000000000000000 ) ) ;
#27 = EDGE_CURVE ( 'NONE', #54, #54, #255, .T. ) ;
#28 = DIRECTION ( 'NONE',  ( 0.0000000000000000000, 1.000000000000000000, 0.0000000000000000000 ) ) ;
#29 = CIRCLE ( 'NONE', #201, 1.043499999999998762 ) ;
#30 = CARTESIAN_POINT ( 'NONE',  ( 1.745740669421566678E-13, 1.199999999999995515, 50.00000000000000000 ) ) ;
#31 = APPROVAL_PERSON_ORGANIZATION ( #104, #57, #159 ) ;
#32 = PERSON_AND_ORGANIZATION ( #277, #257 ) ;
#33 = EDGE_CURVE ( 'NONE', #67, #67, #138, .T. ) ;
#34 =( NAMED_UNIT ( * ) SI_UNIT ( $, .STERADIAN. ) SOLID_ANGLE_UNIT ( ) );
#35 = EDGE_CURVE ( 'NONE', #146, #146, #117, .T. ) ;
#36 = CARTESIAN_POINT ( 'NONE',  ( 0.0000000000000000000, 0.0000000000000000000, 0.0000000000000000000 ) ) ;
#37 = COORDINATED_UNIVERSAL_TIME_OFFSET ( 1, 0, .AHEAD. ) ;
#38 = CLOSED_SHELL ( 'NONE', ( #145, #291, #141, #135, #136, #187, #198, #235 ) ) ;
#39 = APPLICATION_PROTOCOL_DEFINITION ( 'international standard', 'config_control_design', 1994, #252 ) ;
#40 = ORIENTED_EDGE ( 'NONE', *, *, #170, .T. ) ;
#41 = CALENDAR_DATE ( 2021, 30, 11 ) ;
#42 = PRODUCT_DEFINITION ( 'UNKNOWN', '', #285, #23 ) ;
#43 = ORIENTED_EDGE ( 'NONE', *, *, #221, .F. ) ;
#44 = FACE_OUTER_BOUND ( 'NONE', #134, .T. ) ;
#45 = MANIFOLD_SOLID_BREP ( 'Corps-Déplacer/Copier1[2]', #13 ) ;
#46 = AXIS2_PLACEMENT_3D ( 'NONE', #36, #177, #218 ) ;
#47 = LOCAL_TIME ( 7, 45, 2.000000000000000000, #37 ) ;
#48 = EDGE_CURVE ( 'NONE', #73, #73, #228, .T. ) ;
#49 = DIRECTION ( 'NONE',  ( 0.0000000000000000000, 1.000000000000000000, 0.0000000000000000000 ) ) ;
#50 = FACE_OUTER_BOUND ( 'NONE', #236, .T. ) ;
#51 = CYLINDRICAL_SURFACE ( 'NONE', #46, 0.8899999999999991251 ) ;
#52 = DIRECTION ( 'NONE',  ( 0.0000000000000000000, 1.000000000000000000, 0.0000000000000000000 ) ) ;
#53 = DIRECTION ( 'NONE',  ( 3.491481338843133355E-15, -1.224646799147353207E-16, 1.000000000000000000 ) ) ;
#54 = VERTEX_POINT ( 'NONE', #30 ) ;
#55 = CARTESIAN_POINT ( 'NONE',  ( 2.793185071074506684E-14, -9.797174393178825657E-16, 8.000000000000000000 ) ) ;
#56 = ADVANCED_FACE ( 'NONE', ( #279 ), #22, .F. ) ;
#57 = APPROVAL ( #155, 'UNSPECIFIED' ) ;
#58 = CARTESIAN_POINT ( 'NONE',  ( 8.728703347107831416E-16, -3.061616997868382402E-17, 0.2499999999999999445 ) ) ;
#59 = COORDINATED_UNIVERSAL_TIME_OFFSET ( 1, 0, .AHEAD. ) ;
#60 = CYLINDRICAL_SURFACE ( 'NONE', #274, 1.043499999999999206 ) ;
#61 = APPROVAL_ROLE ( '' ) ;
#62 = MECHANICAL_CONTEXT ( 'NONE', #252, 'mechanical' ) ;
#63 = PERSON_AND_ORGANIZATION_ROLE ( 'classification_officer' ) ;
#64 = UNCERTAINTY_MEASURE_WITH_UNIT (LENGTH_MEASURE( 1.000000000000000082E-05 ), #102, 'distance_accuracy_value', 'NONE');
#65 = AXIS2_PLACEMENT_3D ( 'NONE', #276, #94, #7 ) ;
#66 = PRODUCT_RELATED_PRODUCT_CATEGORY ( 'detail', '', ( #303 ) ) ;
#67 = VERTEX_POINT ( 'NONE', #123 ) ;
#68 = CARTESIAN_POINT ( 'NONE',  ( 2.793185071074506684E-14, 7.824996666038224744E-33, 8.000000000000000000 ) ) ;
#69 = AXIS2_PLACEMENT_3D ( 'NONE', #167, #3, #26 ) ;
#70 = APPROVAL_PERSON_ORGANIZATION ( #32, #165, #264 ) ;
#71 = CARTESIAN_POINT ( 'NONE',  ( 8.728703347107831416E-16, -3.061616997868382402E-17, 0.2499999999999999445 ) ) ;
#72 = FACE_OUTER_BOUND ( 'NONE', #292, .T. ) ;
#73 = VERTEX_POINT ( 'NONE', #262 ) ;
#74 = CIRCLE ( 'NONE', #214, 1.043499999999999872 ) ;
#75 = AXIS2_PLACEMENT_3D ( 'NONE', #266, #179, #154 ) ;
#76 = CALENDAR_DATE ( 2021, 30, 11 ) ;
#77 = FACE_OUTER_BOUND ( 'NONE', #149, .T. ) ;
#78 = EDGE_LOOP ( 'NONE', ( #223 ) ) ;
#79 = EDGE_LOOP ( 'NONE', ( #40 ) ) ;
#80 = APPLICATION_PROTOCOL_DEFINITION ( 'international standard', 'config_control_design', 1994, #124 ) ;
#81 = ORIENTED_EDGE ( 'NONE', *, *, #241, .F. ) ;
#82 = CONICAL_SURFACE ( 'NONE', #122, 1.200000000000001732, 0.7853981633974453924 ) ;
#83 = APPROVAL_PERSON_ORGANIZATION ( #132, #300, #61 ) ;
#84 = DIRECTION ( 'NONE',  ( 3.491481338843133355E-15, -1.224646799147353207E-16, 1.000000000000000000 ) ) ;
#85 =( NAMED_UNIT ( * ) PLANE_ANGLE_UNIT ( ) SI_UNIT ( $, .RADIAN. ) );
#86 = CARTESIAN_POINT ( 'NONE',  ( -3.844667004718961713E-31, 1.348527654647750671E-32, -1.101156395122779803E-16 ) ) ;
#87 = ADVANCED_FACE ( 'NONE', ( #77, #265 ), #60, .T. ) ;
#88 = ORIENTED_EDGE ( 'NONE', *, *, #33, .T. ) ;
#89 = DIRECTION ( 'NONE',  ( -3.491481338843133355E-15, 1.224646799147353207E-16, -1.000000000000000000 ) ) ;
#90 = APPROVAL_DATE_TIME ( #128, #165 ) ;
#91 = AXIS2_PLACEMENT_3D ( 'NONE', #97, #232, #282 ) ;
#92 = CARTESIAN_POINT ( 'NONE',  ( 2.793185071074506684E-14, 1.043499999999998762, 8.000000000000000000 ) ) ;
#93 = FACE_BOUND ( 'NONE', #140, .T. ) ;
#94 = DIRECTION ( 'NONE',  ( -3.491481338843133355E-15, 1.224646799147353207E-16, -1.000000000000000000 ) ) ;
#95 = DIRECTION ( 'NONE',  ( -3.491481338843133355E-15, 1.224646799147353207E-16, -1.000000000000000000 ) ) ;
#96 = CC_DESIGN_PERSON_AND_ORGANIZATION_ASSIGNMENT ( #269, #63, ( #234 ) ) ;
#97 = CARTESIAN_POINT ( 'NONE',  ( 2.793185071074506684E-14, -9.797174393178825657E-16, 8.000000000000000000 ) ) ;
#98 = EDGE_LOOP ( 'NONE', ( #101 ) ) ;
#99 = ADVANCED_FACE ( 'NONE', ( #215, #286 ), #176, .T. ) ;
#100 = DIRECTION ( 'NONE',  ( -3.491481338843133355E-15, 1.224646799147353207E-16, -1.000000000000000000 ) ) ;
#101 = ORIENTED_EDGE ( 'NONE', *, *, #27, .T. ) ;
#102 =( LENGTH_UNIT ( ) NAMED_UNIT ( * ) SI_UNIT ( .MILLI., .METRE. ) );
#103 = AXIS2_PLACEMENT_3D ( 'NONE', #206, #84, #129 ) ;
#104 = PERSON_AND_ORGANIZATION ( #277, #257 ) ;
#105 = PLANE ( 'NONE',  #111 ) ;
#106 = CC_DESIGN_PERSON_AND_ORGANIZATION_ASSIGNMENT ( #243, #222, ( #285 ) ) ;
#107 = PERSON_AND_ORGANIZATION ( #277, #257 ) ;
#108 = CIRCLE ( 'NONE', #280, 1.500000000000001554 ) ;
#109 = CC_DESIGN_DATE_AND_TIME_ASSIGNMENT ( #184, #220, ( #42 ) ) ;
#110 = ORIENTED_EDGE ( 'NONE', *, *, #203, .T. ) ;
#111 = AXIS2_PLACEMENT_3D ( 'NONE', #183, #209, #226 ) ;
#112 = CARTESIAN_POINT ( 'NONE',  ( 1.745740669421566678E-13, -6.123233995736766085E-15, 50.00000000000000000 ) ) ;
#113 = PRODUCT_DEFINITION_SHAPE ( 'NONE', 'NONE',  #42 ) ;
#114 = ORIENTED_EDGE ( 'NONE', *, *, #192, .T. ) ;
#115 = VERTEX_POINT ( 'NONE', #207 ) ;
#116 = EDGE_LOOP ( 'NONE', ( #114 ) ) ;
#117 = CIRCLE ( 'NONE', #65, 0.8899999999999985700 ) ;
#118 = DIRECTION ( 'NONE',  ( -3.491481338843133355E-15, 1.224646799147353207E-16, -1.000000000000000000 ) ) ;
#119 = CC_DESIGN_PERSON_AND_ORGANIZATION_ASSIGNMENT ( #182, #296, ( #285 ) ) ;
#120 = DIRECTION ( 'NONE',  ( -4.275831445896958607E-31, -1.000000000000000000, -1.224646799147353207E-16 ) ) ;
#121 = DIRECTION ( 'NONE',  ( -3.491481338843133355E-15, 1.224646799147353207E-16, -1.000000000000000000 ) ) ;
#122 = AXIS2_PLACEMENT_3D ( 'NONE', #210, #118, #49 ) ;
#123 = CARTESIAN_POINT ( 'NONE',  ( 0.0000000000000000000, 0.8991624327025945496, 0.0000000000000000000 ) ) ;
#124 = APPLICATION_CONTEXT ( 'configuration controlled 3d designs of mechanical parts and assemblies' ) ;
#125 = EDGE_LOOP ( 'NONE', ( #88 ) ) ;
#126 = COORDINATED_UNIVERSAL_TIME_OFFSET ( 1, 0, .AHEAD. ) ;
#127 = AXIS2_PLACEMENT_3D ( 'NONE', #86, #272, #163 ) ;
#128 = DATE_AND_TIME ( #238, #169 ) ;
#129 = DIRECTION ( 'NONE',  ( -4.275831445896958607E-31, -1.000000000000000000, -1.224646799147353207E-16 ) ) ;
#130 = SECURITY_CLASSIFICATION_LEVEL ( 'unclassified' ) ;
#131 = FACE_OUTER_BOUND ( 'NONE', #245, .T. ) ;
#132 = PERSON_AND_ORGANIZATION ( #277, #257 ) ;
#133 = EDGE_LOOP ( 'NONE', ( #297 ) ) ;
#134 = EDGE_LOOP ( 'NONE', ( #185 ) ) ;
#135 = ADVANCED_FACE ( 'NONE', ( #44, #224 ), #251, .F. ) ;
#136 = ADVANCED_FACE ( 'NONE', ( #174, #254 ), #302, .T. ) ;
#137 = ORIENTED_EDGE ( 'NONE', *, *, #33, .F. ) ;
#138 = CIRCLE ( 'NONE', #127, 0.8991624327025945496 ) ;
#139 = ORIENTED_EDGE ( 'NONE', *, *, #203, .F. ) ;
#140 = EDGE_LOOP ( 'NONE', ( #186 ) ) ;
#141 = ADVANCED_FACE ( 'NONE', ( #14, #227 ), #51, .T. ) ;
#142 = CIRCLE ( 'NONE', #91, 1.043499999999999872 ) ;
#143 = LOCAL_TIME ( 7, 45, 2.000000000000000000, #126 ) ;
#144 = CC_DESIGN_DATE_AND_TIME_ASSIGNMENT ( #240, #161, ( #234 ) ) ;
#145 = ADVANCED_FACE ( 'NONE', ( #216 ), #6, .F. ) ;
#146 = VERTEX_POINT ( 'NONE', #175 ) ;
#147 = DIRECTION ( 'NONE',  ( 3.691288824891687970E-31, 1.000000000000000000, 1.039005436018692625E-16 ) ) ;
#148 = ADVANCED_BREP_SHAPE_REPRESENTATION ( '57717', ( #231, #45, #75 ), #181 ) ;
#149 = EDGE_LOOP ( 'NONE', ( #81 ) ) ;
#150 = CYLINDRICAL_SURFACE ( 'NONE', #8, 1.499999999999999112 ) ;
#151 = CARTESIAN_POINT ( 'NONE',  ( 0.0000000000000000000, 0.0000000000000000000, 0.0000000000000000000 ) ) ;
#152 = EDGE_LOOP ( 'NONE', ( #19 ) ) ;
#153 = VERTEX_POINT ( 'NONE', #237 ) ;
#154 = DIRECTION ( 'NONE',  ( 1.000000000000000000, 0.0000000000000000000, 0.0000000000000000000 ) ) ;
#155 = APPROVAL_STATUS ( 'not_yet_approved' ) ;
#156 = DIRECTION ( 'NONE',  ( 0.0000000000000000000, -1.000000000000000000, 0.0000000000000000000 ) ) ;
#157 = AXIS2_PLACEMENT_3D ( 'NONE', #68, #53, #120 ) ;
#158 = LOCAL_TIME ( 7, 45, 2.000000000000000000, #289 ) ;
#159 = APPROVAL_ROLE ( '' ) ;
#160 = DATE_AND_TIME ( #76, #47 ) ;
#161 = DATE_TIME_ROLE ( 'classification_date' ) ;
#162 = DIRECTION ( 'NONE',  ( 0.0000000000000000000, 1.000000000000000000, 0.0000000000000000000 ) ) ;
#163 = DIRECTION ( 'NONE',  ( 4.275831445896958607E-31, 1.000000000000000000, 1.224646799147353207E-16 ) ) ;
#164 = AXIS2_PLACEMENT_3D ( 'NONE', #208, #230, #28 ) ;
#165 = APPROVAL ( #11, 'UNSPECIFIED' ) ;
#166 = CARTESIAN_POINT ( 'NONE',  ( 7.553631070201347360E-14, 1.499999999999994005, 21.63445923701876339 ) ) ;
#167 = CARTESIAN_POINT ( 'NONE',  ( 6.405924284287275164E-14, -2.246895775456749140E-15, 18.34729635533384595 ) ) ;
#168 = AXIS2_PLACEMENT_3D ( 'NONE', #25, #1, #156 ) ;
#169 = LOCAL_TIME ( 7, 45, 2.000000000000000000, #59 ) ;
#170 = EDGE_CURVE ( 'NONE', #153, #153, #205, .T. ) ;
#171 = CARTESIAN_POINT ( 'NONE',  ( 2.886013015238226509E-14, -1.012277099146737952E-15, 8.265869798961828607 ) ) ;
#172 = DIRECTION ( 'NONE',  ( -3.491481338843133355E-15, 1.224646799147353207E-16, -1.000000000000000000 ) ) ;
#173 = CARTESIAN_POINT ( 'NONE',  ( 1.735266225405037467E-13, -6.086494591762345225E-15, 49.70000000000000284 ) ) ;
#174 = FACE_BOUND ( 'NONE', #250, .T. ) ;
#175 = CARTESIAN_POINT ( 'NONE',  ( 2.886013015238226509E-14, 0.8899999999999975708, 8.265869798961828607 ) ) ;
#176 = CONICAL_SURFACE ( 'NONE', #225, 1.043499999999998762, 0.5235987755982922653 ) ;
#177 = DIRECTION ( 'NONE',  ( -3.491481338843133355E-15, 1.224646799147353207E-16, -1.000000000000000000 ) ) ;
#178 = PERSON_AND_ORGANIZATION_ROLE ( 'design_owner' ) ;
#179 = DIRECTION ( 'NONE',  ( 0.0000000000000000000, 0.0000000000000000000, 1.000000000000000000 ) ) ;
#180 = PERSON_AND_ORGANIZATION_ROLE ( 'creator' ) ;
#181 =( GEOMETRIC_REPRESENTATION_CONTEXT ( 3 ) GLOBAL_UNCERTAINTY_ASSIGNED_CONTEXT ( ( #64 ) ) GLOBAL_UNIT_ASSIGNED_CONTEXT ( ( #102, #85, #34 ) ) REPRESENTATION_CONTEXT ( 'NONE', 'WORKASPACE' ) );
#182 = PERSON_AND_ORGANIZATION ( #277, #257 ) ;
#183 = CARTESIAN_POINT ( 'NONE',  ( 2.793185071074506684E-14, 7.824996666038224744E-33, 8.000000000000000000 ) ) ;
#184 = DATE_AND_TIME ( #293, #143 ) ;
#185 = ORIENTED_EDGE ( 'NONE', *, *, #48, .F. ) ;
#186 = ORIENTED_EDGE ( 'NONE', *, *, #35, .T. ) ;
#187 = ADVANCED_FACE ( 'NONE', ( #50, #259 ), #150, .T. ) ;
#188 = CONICAL_SURFACE ( 'NONE', #290, 0.8899999999999985700, 0.5235987755982922653 ) ;
#189 = CC_DESIGN_APPROVAL ( #57, ( #285 ) ) ;
#190 = VERTEX_POINT ( 'NONE', #166 ) ;
#191 = VERTEX_POINT ( 'NONE', #283 ) ;
#192 = EDGE_CURVE ( 'NONE', #115, #115, #142, .T. ) ;
#193 = DIRECTION ( 'NONE',  ( -3.491481338843133355E-15, 1.224646799147353207E-16, -1.000000000000000000 ) ) ;
#194 = DIRECTION ( 'NONE',  ( 0.0000000000000000000, 1.000000000000000000, 0.0000000000000000000 ) ) ;
#195 = FACE_BOUND ( 'NONE', #98, .T. ) ;
#196 = FACE_OUTER_BOUND ( 'NONE', #18, .T. ) ;
#197 = APPROVAL_STATUS ( 'not_yet_approved' ) ;
#198 = ADVANCED_FACE ( 'NONE', ( #196, #195 ), #82, .T. ) ;
#199 = PERSON_AND_ORGANIZATION ( #277, #257 ) ;
#200 = APPROVAL_DATE_TIME ( #160, #57 ) ;
#201 = AXIS2_PLACEMENT_3D ( 'NONE', #71, #10, #147 ) ;
#202 = DATE_AND_TIME ( #270, #158 ) ;
#203 = EDGE_CURVE ( 'NONE', #5, #5, #74, .T. ) ;
#204 = CC_DESIGN_PERSON_AND_ORGANIZATION_ASSIGNMENT ( #107, #178, ( #303 ) ) ;
#205 = CIRCLE ( 'NONE', #69, 0.9203844939755813082 ) ;
#206 = CARTESIAN_POINT ( 'NONE',  ( -1.922333502359480857E-31, 6.742638273238753354E-33, -5.505781975613899016E-17 ) ) ;
#207 = CARTESIAN_POINT ( 'NONE',  ( 2.793185071074506684E-14, 1.043499999999998762, 8.000000000000000000 ) ) ;
#208 = CARTESIAN_POINT ( 'NONE',  ( 7.553631070201347360E-14, -2.649457125589892030E-15, 21.63445923701876339 ) ) ;
#209 = DIRECTION ( 'NONE',  ( 3.491481338843133355E-15, -1.224646799147353207E-16, 1.000000000000000000 ) ) ;
#210 = CARTESIAN_POINT ( 'NONE',  ( 1.745740669421566678E-13, -6.123233995736766085E-15, 50.00000000000000000 ) ) ;
#211 = DIRECTION ( 'NONE',  ( 4.275831445896958607E-31, 1.000000000000000000, 1.224646799147353207E-16 ) ) ;
#212 = CARTESIAN_POINT ( 'NONE',  ( 1.745740669421566678E-13, 8.998558695971067645E-33, 50.00000000000000000 ) ) ;
#213 = DIRECTION ( 'NONE',  ( 4.275831445896959482E-31, 1.000000000000000000, 1.224646799147353207E-16 ) ) ;
#214 = AXIS2_PLACEMENT_3D ( 'NONE', #55, #288, #194 ) ;
#215 = FACE_BOUND ( 'NONE', #295, .T. ) ;
#216 = FACE_OUTER_BOUND ( 'NONE', #15, .T. ) ;
#217 = CC_DESIGN_PERSON_AND_ORGANIZATION_ASSIGNMENT ( #199, #180, ( #42 ) ) ;
#218 = DIRECTION ( 'NONE',  ( 4.275831445896958607E-31, 1.000000000000000000, 1.224646799147353207E-16 ) ) ;
#219 = ORIENTED_EDGE ( 'NONE', *, *, #35, .F. ) ;
#220 = DATE_TIME_ROLE ( 'creation_date' ) ;
#221 = EDGE_CURVE ( 'NONE', #190, #190, #298, .T. ) ;
#222 = PERSON_AND_ORGANIZATION_ROLE ( 'design_supplier' ) ;
#223 = ORIENTED_EDGE ( 'NONE', *, *, #248, .T. ) ;
#224 = FACE_OUTER_BOUND ( 'NONE', #79, .T. ) ;
#225 = AXIS2_PLACEMENT_3D ( 'NONE', #58, #17, #273 ) ;
#226 = DIRECTION ( 'NONE',  ( -4.275831445896958607E-31, -1.000000000000000000, -1.224646799147353207E-16 ) ) ;
#227 = FACE_OUTER_BOUND ( 'NONE', #278, .T. ) ;
#228 = CIRCLE ( 'NONE', #16, 0.8899999999999996803 ) ;
#229 = CARTESIAN_POINT ( 'NONE',  ( 8.728703347107835360E-16, 1.043499999999998762, 0.2500000000000000555 ) ) ;
#230 = DIRECTION ( 'NONE',  ( -3.491481338843133355E-15, 1.224646799147353207E-16, -1.000000000000000000 ) ) ;
#231 = MANIFOLD_SOLID_BREP ( 'Corps-Déplacer/Copier1[1]', #38 ) ;
#232 = DIRECTION ( 'NONE',  ( -3.491481338843133355E-15, 1.224646799147353207E-16, -1.000000000000000000 ) ) ;
#233 = DIRECTION ( 'NONE',  ( 0.0000000000000000000, 1.000000000000000000, 0.0000000000000000000 ) ) ;
#234 = SECURITY_CLASSIFICATION ( '', '', #130 ) ;
#235 = ADVANCED_FACE ( 'NONE', ( #284 ), #256, .F. ) ;
#236 = EDGE_LOOP ( 'NONE', ( #43 ) ) ;
#237 = CARTESIAN_POINT ( 'NONE',  ( 6.405924284287275164E-14, 0.9203844939755789767, 18.34729635533384595 ) ) ;
#238 = CALENDAR_DATE ( 2021, 30, 11 ) ;
#239 = ORIENTED_EDGE ( 'NONE', *, *, #27, .F. ) ;
#240 = DATE_AND_TIME ( #41, #249 ) ;
#241 = EDGE_CURVE ( 'NONE', #253, #253, #29, .T. ) ;
#242 = CC_DESIGN_APPROVAL ( #165, ( #234 ) ) ;
#243 = PERSON_AND_ORGANIZATION ( #277, #257 ) ;
#244 = COORDINATED_UNIVERSAL_TIME_OFFSET ( 1, 0, .AHEAD. ) ;
#245 = EDGE_LOOP ( 'NONE', ( #294 ) ) ;
#246 = SHAPE_DEFINITION_REPRESENTATION ( #113, #148 ) ;
#247 = AXIS2_PLACEMENT_3D ( 'NONE', #212, #121, #9 ) ;
#248 = EDGE_CURVE ( 'NONE', #191, #191, #108, .T. ) ;
#249 = LOCAL_TIME ( 7, 45, 2.000000000000000000, #244 ) ;
#250 = EDGE_LOOP ( 'NONE', ( #263 ) ) ;
#251 = TOROIDAL_SURFACE ( 'NONE', #2, 2.889999999999999680, 2.000000000000000000 ) ;
#252 = APPLICATION_CONTEXT ( 'configuration controlled 3d designs of mechanical parts and assemblies' ) ;
#253 = VERTEX_POINT ( 'NONE', #229 ) ;
#254 = FACE_OUTER_BOUND ( 'NONE', #152, .T. ) ;
#255 = CIRCLE ( 'NONE', #20, 1.200000000000001732 ) ;
#256 = PLANE ( 'NONE',  #247 ) ;
#257 = ORGANIZATION ( 'UNSPECIFIED', 'UNSPECIFIED', '' ) ;
#258 = CARTESIAN_POINT ( 'NONE',  ( 6.284666409917640040E-14, -2.204364238465235428E-15, 18.00000000000000000 ) ) ;
#259 = FACE_OUTER_BOUND ( 'NONE', #78, .T. ) ;
#260 = EDGE_LOOP ( 'NONE', ( #239 ) ) ;
#261 = DIRECTION ( 'NONE',  ( 0.0000000000000000000, 1.000000000000000000, 0.0000000000000000000 ) ) ;
#262 = CARTESIAN_POINT ( 'NONE',  ( 6.284666409917640040E-14, 0.8899999999999975708, 18.00000000000000000 ) ) ;
#263 = ORIENTED_EDGE ( 'NONE', *, *, #170, .F. ) ;
#264 = APPROVAL_ROLE ( '' ) ;
#265 = FACE_OUTER_BOUND ( 'NONE', #116, .T. ) ;
#266 = CARTESIAN_POINT ( 'NONE',  ( 0.0000000000000000000, 0.0000000000000000000, 0.0000000000000000000 ) ) ;
#267 = ORIENTED_EDGE ( 'NONE', *, *, #248, .F. ) ;
#268 = CARTESIAN_POINT ( 'NONE',  ( 0.0000000000000000000, 0.0000000000000000000, 0.0000000000000000000 ) ) ;
#269 = PERSON_AND_ORGANIZATION ( #277, #257 ) ;
#270 = CALENDAR_DATE ( 2021, 30, 11 ) ;
#271 = EDGE_LOOP ( 'NONE', ( #219 ) ) ;
#272 = DIRECTION ( 'NONE',  ( -3.491481338843133355E-15, 1.224646799147353207E-16, -1.000000000000000000 ) ) ;
#273 = DIRECTION ( 'NONE',  ( -3.691288824891687970E-31, -1.000000000000000000, -1.039005436018692625E-16 ) ) ;
#274 = AXIS2_PLACEMENT_3D ( 'NONE', #268, #193, #211 ) ;
#275 = CC_DESIGN_SECURITY_CLASSIFICATION ( #234, ( #285 ) ) ;
#276 = CARTESIAN_POINT ( 'NONE',  ( 2.886013015238226509E-14, -1.012277099146737952E-15, 8.265869798961828607 ) ) ;
#277 = PERSON ( 'UNSPECIFIED', 'UNSPECIFIED', 'UNSPECIFIED', ('UNSPECIFIED'), ('UNSPECIFIED'), ('UNSPECIFIED') ) ;
#278 = EDGE_LOOP ( 'NONE', ( #301 ) ) ;
#279 = FACE_OUTER_BOUND ( 'NONE', #125, .T. ) ;
#280 = AXIS2_PLACEMENT_3D ( 'NONE', #173, #287, #233 ) ;
#281 = CARTESIAN_POINT ( 'NONE',  ( 6.284666409917640040E-14, -2.168404344971008868E-15, 18.00000000000000000 ) ) ;
#282 = DIRECTION ( 'NONE',  ( 0.0000000000000000000, 1.000000000000000000, 0.0000000000000000000 ) ) ;
#283 = CARTESIAN_POINT ( 'NONE',  ( 1.735266225405037467E-13, 1.499999999999995559, 49.70000000000000284 ) ) ;
#284 = FACE_OUTER_BOUND ( 'NONE', #260, .T. ) ;
#285 = PRODUCT_DEFINITION_FORMATION_WITH_SPECIFIED_SOURCE ( 'ANY', '', #303, .NOT_KNOWN. ) ;
#286 = FACE_OUTER_BOUND ( 'NONE', #133, .T. ) ;
#287 = DIRECTION ( 'NONE',  ( -3.491481338843133355E-15, 1.224646799147353207E-16, -1.000000000000000000 ) ) ;
#288 = DIRECTION ( 'NONE',  ( -3.491481338843133355E-15, 1.224646799147353207E-16, -1.000000000000000000 ) ) ;
#289 = COORDINATED_UNIVERSAL_TIME_OFFSET ( 1, 0, .AHEAD. ) ;
#290 = AXIS2_PLACEMENT_3D ( 'NONE', #171, #100, #261 ) ;
#291 = ADVANCED_FACE ( 'NONE', ( #72, #93 ), #188, .T. ) ;
#292 = EDGE_LOOP ( 'NONE', ( #139 ) ) ;
#293 = CALENDAR_DATE ( 2021, 30, 11 ) ;
#294 = ORIENTED_EDGE ( 'NONE', *, *, #192, .F. ) ;
#295 = EDGE_LOOP ( 'NONE', ( #137 ) ) ;
#296 = PERSON_AND_ORGANIZATION_ROLE ( 'creator' ) ;
#297 = ORIENTED_EDGE ( 'NONE', *, *, #241, .T. ) ;
#298 = CIRCLE ( 'NONE', #164, 1.499999999999996669 ) ;
#299 = APPROVAL_DATE_TIME ( #202, #300 ) ;
#300 = APPROVAL ( #197, 'UNSPECIFIED' ) ;
#301 = ORIENTED_EDGE ( 'NONE', *, *, #48, .T. ) ;
#302 = CONICAL_SURFACE ( 'NONE', #168, 1.499999999999996669, 0.1745329251994260089 ) ;
#303 = PRODUCT ( '57717', '57717', '', ( #62 ) ) ;
ENDSEC;
END-ISO-10303-21;
