ISO-10303-21;
HEADER;
FILE_DESCRIPTION (( 'STEP AP203' ),
    '1' );
FILE_NAME ('57692.step',
    '2021-11-01T12:23:44',
    ( '' ),
    ( '' ),
    'SwSTEP 2.0',
    'SolidWorks 2019',
    '' );
FILE_SCHEMA (( 'CONFIG_CONTROL_DESIGN' ));
ENDSEC;

DATA;
#1 = FACE_OUTER_BOUND ( 'NONE', #191, .T. ) ;
#2 = CARTESIAN_POINT ( 'NONE',  ( 2.199633243471174140E-13, -7.715274834628325378E-15, 63.00000000000000000 ) ) ;
#3 = AXIS2_PLACEMENT_3D ( 'NONE', #139, #159, #210 ) ;
#4 = ORIENTED_EDGE ( 'NONE', *, *, #63, .T. ) ;
#5 = DIRECTION ( 'NONE',  ( 4.275831445896958607E-31, 1.000000000000000000, 1.224646799147353207E-16 ) ) ;
#6 = CARTESIAN_POINT ( 'NONE',  ( 2.199633243471174140E-13, -7.715274834628325378E-15, 63.00000000000000000 ) ) ;
#7 = ORGANIZATION ( 'UNSPECIFIED', 'UNSPECIFIED', '' ) ;
#8 = PERSON_AND_ORGANIZATION ( #209, #7 ) ;
#9 = COORDINATED_UNIVERSAL_TIME_OFFSET ( 1, 0, .AHEAD. ) ;
#10 = CIRCLE ( 'NONE', #216, 3.999999999999994671 ) ;
#11 = FACE_BOUND ( 'NONE', #39, .T. ) ;
#12 = CC_DESIGN_PERSON_AND_ORGANIZATION_ASSIGNMENT ( #117, #44, ( #16 ) ) ;
#13 = VERTEX_POINT ( 'NONE', #203 ) ;
#14 = FACE_OUTER_BOUND ( 'NONE', #91, .T. ) ;
#15 = FACE_OUTER_BOUND ( 'NONE', #178, .T. ) ;
#16 = PRODUCT ( '57692', '57692', '', ( #214 ) ) ;
#17 = CIRCLE ( 'NONE', #3, 4.000000000000000888 ) ;
#18 = LOCAL_TIME ( 13, 23, 44.00000000000000000, #61 ) ;
#19 = EDGE_LOOP ( 'NONE', ( #4 ) ) ;
#20 = APPROVAL ( #21, 'UNSPECIFIED' ) ;
#21 = APPROVAL_STATUS ( 'not_yet_approved' ) ;
#22 = ADVANCED_FACE ( 'NONE', ( #156, #1 ), #88, .T. ) ;
#23 = PERSON_AND_ORGANIZATION_ROLE ( 'creator' ) ;
#24 = DIRECTION ( 'NONE',  ( 4.275831445896958607E-31, 1.000000000000000000, 1.224646799147353207E-16 ) ) ;
#25 = DESIGN_CONTEXT ( 'detailed design', #215, 'design' ) ;
#26 = PERSON_AND_ORGANIZATION_ROLE ( 'creator' ) ;
#27 = AXIS2_PLACEMENT_3D ( 'NONE', #40, #36, #38 ) ;
#28 = CC_DESIGN_APPROVAL ( #20, ( #109 ) ) ;
#29 = PERSON_AND_ORGANIZATION ( #209, #7 ) ;
#30 = CALENDAR_DATE ( 2021, 1, 11 ) ;
#31 = LOCAL_TIME ( 13, 23, 44.00000000000000000, #9 ) ;
#32 = EDGE_CURVE ( 'NONE', #66, #66, #10, .T. ) ;
#33 = DIRECTION ( 'NONE',  ( -4.275831445896958607E-31, -1.000000000000000000, -1.224646799147353207E-16 ) ) ;
#34 = CARTESIAN_POINT ( 'NONE',  ( 2.182175836776958284E-13, 3.999999999999993339, 62.50000000000000000 ) ) ;
#35 = PLANE ( 'NONE',  #172 ) ;
#36 = DIRECTION ( 'NONE',  ( 3.491481338843133355E-15, -1.226656096638776648E-16, 1.000000000000000000 ) ) ;
#37 = CC_DESIGN_APPROVAL ( #76, ( #94 ) ) ;
#38 = DIRECTION ( 'NONE',  ( -4.282846870592448247E-31, -1.000000000000000000, -1.226656096638776401E-16 ) ) ;
#39 = EDGE_LOOP ( 'NONE', ( #73 ) ) ;
#40 = CARTESIAN_POINT ( 'NONE',  ( -1.627481810825131210E-30, 3.057917272063404915E-32, -4.661293167227353184E-16 ) ) ;
#41 = AXIS2_PLACEMENT_3D ( 'NONE', #171, #150, #105 ) ;
#42 = APPROVAL_DATE_TIME ( #116, #76 ) ;
#43 = DIRECTION ( 'NONE',  ( 0.0000000000000000000, 1.000000000000000000, 0.0000000000000000000 ) ) ;
#44 = PERSON_AND_ORGANIZATION_ROLE ( 'design_owner' ) ;
#45 = AXIS2_PLACEMENT_3D ( 'NONE', #2, #143, #188 ) ;
#46 = PERSON_AND_ORGANIZATION ( #209, #7 ) ;
#47 = EDGE_CURVE ( 'NONE', #185, #185, #17, .T. ) ;
#48 = AXIS2_PLACEMENT_3D ( 'NONE', #6, #127, #146 ) ;
#49 = FACE_OUTER_BOUND ( 'NONE', #108, .T. ) ;
#50 = AXIS2_PLACEMENT_3D ( 'NONE', #217, #194, #43 ) ;
#51 = VERTEX_POINT ( 'NONE', #170 ) ;
#52 = EDGE_LOOP ( 'NONE', ( #190 ) ) ;
#53 = DIRECTION ( 'NONE',  ( 0.0000000000000000000, 1.000000000000000000, 0.0000000000000000000 ) ) ;
#54 = EDGE_LOOP ( 'NONE', ( #212 ) ) ;
#55 = EDGE_LOOP ( 'NONE', ( #86 ) ) ;
#56 = MANIFOLD_SOLID_BREP ( 'Corps-Déplacer/Copier1[1]', #98 ) ;
#57 = DATE_AND_TIME ( #113, #59 ) ;
#58 = EDGE_LOOP ( 'NONE', ( #179 ) ) ;
#59 = LOCAL_TIME ( 13, 23, 44.00000000000000000, #74 ) ;
#60 = CALENDAR_DATE ( 2021, 1, 11 ) ;
#61 = COORDINATED_UNIVERSAL_TIME_OFFSET ( 1, 0, .AHEAD. ) ;
#62 = PERSON_AND_ORGANIZATION ( #209, #7 ) ;
#63 = EDGE_CURVE ( 'NONE', #101, #101, #103, .T. ) ;
#64 = DIRECTION ( 'NONE',  ( 3.491481338843133355E-15, -1.226656096638776648E-16, 1.000000000000000000 ) ) ;
#65 = APPROVAL_PERSON_ORGANIZATION ( #46, #79, #90 ) ;
#66 = VERTEX_POINT ( 'NONE', #134 ) ;
#67 =( LENGTH_UNIT ( ) NAMED_UNIT ( * ) SI_UNIT ( .MILLI., .METRE. ) );
#68 = APPROVAL_PERSON_ORGANIZATION ( #219, #20, #161 ) ;
#69 = CARTESIAN_POINT ( 'NONE',  ( 0.0000000000000000000, 0.0000000000000000000, 0.0000000000000000000 ) ) ;
#70 = ORIENTED_EDGE ( 'NONE', *, *, #121, .T. ) ;
#71 = CC_DESIGN_SECURITY_CLASSIFICATION ( #109, ( #165 ) ) ;
#72 = DIRECTION ( 'NONE',  ( -3.491481338843133355E-15, 1.224646799147353207E-16, -1.000000000000000000 ) ) ;
#73 = ORIENTED_EDGE ( 'NONE', *, *, #78, .T. ) ;
#74 = COORDINATED_UNIVERSAL_TIME_OFFSET ( 1, 0, .AHEAD. ) ;
#75 = FACE_BOUND ( 'NONE', #19, .T. ) ;
#76 = APPROVAL ( #147, 'UNSPECIFIED' ) ;
#77 = APPROVAL_DATE_TIME ( #92, #79 ) ;
#78 = EDGE_CURVE ( 'NONE', #51, #51, #158, .T. ) ;
#79 = APPROVAL ( #130, 'UNSPECIFIED' ) ;
#80 = CARTESIAN_POINT ( 'NONE',  ( 6.982962677686236142E-16, -4.000000000000000000, 0.1999999999999991229 ) ) ;
#81 = DIRECTION ( 'NONE',  ( -4.333342374871280669E-31, -1.000000000000000000, -1.219727444046192488E-16 ) ) ;
#82 = APPLICATION_CONTEXT ( 'configuration controlled 3d designs of mechanical parts and assemblies' ) ;
#83 = FACE_OUTER_BOUND ( 'NONE', #52, .T. ) ;
#84 = CC_DESIGN_DATE_AND_TIME_ASSIGNMENT ( #57, #218, ( #94 ) ) ;
#85 = PLANE ( 'NONE',  #175 ) ;
#86 = ORIENTED_EDGE ( 'NONE', *, *, #78, .F. ) ;
#87 = ORIENTED_EDGE ( 'NONE', *, *, #115, .F. ) ;
#88 = CYLINDRICAL_SURFACE ( 'NONE', #196, 3.999999999999994227 ) ;
#89 = CIRCLE ( 'NONE', #50, 3.999999999999994671 ) ;
#90 = APPROVAL_ROLE ( '' ) ;
#91 = EDGE_LOOP ( 'NONE', ( #87 ) ) ;
#92 = DATE_AND_TIME ( #60, #154 ) ;
#93 = DIRECTION ( 'NONE',  ( 3.491481338843133355E-15, -1.226656096638776648E-16, 1.000000000000000000 ) ) ;
#94 = PRODUCT_DEFINITION ( 'UNKNOWN', '', #165, #25 ) ;
#95 = AXIS2_PLACEMENT_3D ( 'NONE', #120, #223, #221 ) ;
#96 = APPROVAL_ROLE ( '' ) ;
#97 = APPROVAL_DATE_TIME ( #183, #20 ) ;
#98 = CLOSED_SHELL ( 'NONE', ( #202, #125, #112, #104 ) ) ;
#99 = LOCAL_TIME ( 13, 23, 44.00000000000000000, #166 ) ;
#100 = CARTESIAN_POINT ( 'NONE',  ( 2.199633243471174140E-13, 3.499999999999993783, 63.00000000000000000 ) ) ;
#101 = VERTEX_POINT ( 'NONE', #100 ) ;
#102 = ADVANCED_FACE ( 'NONE', ( #177 ), #107, .F. ) ;
#103 = CIRCLE ( 'NONE', #45, 3.500000000000001332 ) ;
#104 = ADVANCED_FACE ( 'NONE', ( #15 ), #85, .F. ) ;
#105 = DIRECTION ( 'NONE',  ( 4.275831445896958607E-31, 1.000000000000000000, 1.224646799147353207E-16 ) ) ;
#106 = CC_DESIGN_PERSON_AND_ORGANIZATION_ASSIGNMENT ( #182, #26, ( #165 ) ) ;
#107 = PLANE ( 'NONE',  #119 ) ;
#108 = EDGE_LOOP ( 'NONE', ( #208 ) ) ;
#109 = SECURITY_CLASSIFICATION ( '', '', #131 ) ;
#110 = PERSON_AND_ORGANIZATION ( #209, #7 ) ;
#111 = DIRECTION ( 'NONE',  ( -3.491481338843133355E-15, 1.224646799147353207E-16, -1.000000000000000000 ) ) ;
#112 = ADVANCED_FACE ( 'NONE', ( #164, #75 ), #181, .T. ) ;
#113 = CALENDAR_DATE ( 2021, 1, 11 ) ;
#114 = COORDINATED_UNIVERSAL_TIME_OFFSET ( 1, 0, .AHEAD. ) ;
#115 = EDGE_CURVE ( 'NONE', #13, #13, #89, .T. ) ;
#116 = DATE_AND_TIME ( #193, #31 ) ;
#117 = PERSON_AND_ORGANIZATION ( #209, #7 ) ;
#118 = DIRECTION ( 'NONE',  ( 3.491481338843133355E-15, -1.224646799147353207E-16, 1.000000000000000000 ) ) ;
#119 = AXIS2_PLACEMENT_3D ( 'NONE', #173, #141, #211 ) ;
#120 = CARTESIAN_POINT ( 'NONE',  ( 5.586370142149013368E-14, 2.999519565323708647E-32, 16.00000000000000000 ) ) ;
#121 = EDGE_CURVE ( 'NONE', #122, #122, #206, .T. ) ;
#122 = VERTEX_POINT ( 'NONE', #80 ) ;
#123 = EDGE_LOOP ( 'NONE', ( #162 ) ) ;
#124 = ORIENTED_EDGE ( 'NONE', *, *, #63, .F. ) ;
#125 = ADVANCED_FACE ( 'NONE', ( #83, #149 ), #207, .T. ) ;
#126 = DIRECTION ( 'NONE',  ( 1.000000000000000000, 0.0000000000000000000, 0.0000000000000000000 ) ) ;
#127 = DIRECTION ( 'NONE',  ( -3.491481338843133355E-15, 1.224646799147353207E-16, -1.000000000000000000 ) ) ;
#128 = AXIS2_PLACEMENT_3D ( 'NONE', #200, #64, #153 ) ;
#129 = CALENDAR_DATE ( 2021, 1, 11 ) ;
#130 = APPROVAL_STATUS ( 'not_yet_approved' ) ;
#131 = SECURITY_CLASSIFICATION_LEVEL ( 'unclassified' ) ;
#132 = MANIFOLD_SOLID_BREP ( 'Corps-Déplacer/Copier1[2]', #184 ) ;
#133 = ADVANCED_FACE ( 'NONE', ( #11, #137 ), #189, .T. ) ;
#134 = CARTESIAN_POINT ( 'NONE',  ( 5.586370142149013368E-14, 3.999999999999993339, 16.00000000000000000 ) ) ;
#135 =( NAMED_UNIT ( * ) PLANE_ANGLE_UNIT ( ) SI_UNIT ( $, .RADIAN. ) );
#136 = ADVANCED_BREP_SHAPE_REPRESENTATION ( '57692', ( #56, #132, #199 ), #174 ) ;
#137 = FACE_OUTER_BOUND ( 'NONE', #54, .T. ) ;
#138 = ORIENTED_EDGE ( 'NONE', *, *, #47, .T. ) ;
#139 = CARTESIAN_POINT ( 'NONE',  ( 2.182175836776958284E-13, -7.654042494670957804E-15, 62.50000000000000000 ) ) ;
#140 = PRODUCT_RELATED_PRODUCT_CATEGORY ( 'detail', '', ( #16 ) ) ;
#141 = DIRECTION ( 'NONE',  ( 3.491481338843133355E-15, -1.224646799147353207E-16, 1.000000000000000000 ) ) ;
#142 = DATE_TIME_ROLE ( 'classification_date' ) ;
#143 = DIRECTION ( 'NONE',  ( -3.491481338843133355E-15, 1.224646799147353207E-16, -1.000000000000000000 ) ) ;
#144 = CC_DESIGN_PERSON_AND_ORGANIZATION_ASSIGNMENT ( #62, #148, ( #165 ) ) ;
#145 = UNCERTAINTY_MEASURE_WITH_UNIT (LENGTH_MEASURE( 1.000000000000000082E-05 ), #67, 'distance_accuracy_value', 'NONE');
#146 = DIRECTION ( 'NONE',  ( 0.0000000000000000000, 1.000000000000000000, 0.0000000000000000000 ) ) ;
#147 = APPROVAL_STATUS ( 'not_yet_approved' ) ;
#148 = PERSON_AND_ORGANIZATION_ROLE ( 'design_supplier' ) ;
#149 = FACE_OUTER_BOUND ( 'NONE', #176, .T. ) ;
#150 = DIRECTION ( 'NONE',  ( -3.491481338843133355E-15, 1.224646799147353207E-16, -1.000000000000000000 ) ) ;
#151 = AXIS2_PLACEMENT_3D ( 'NONE', #180, #93, #81 ) ;
#152 = CARTESIAN_POINT ( 'NONE',  ( 5.586370142149013368E-14, 2.999519565323708647E-32, 16.00000000000000000 ) ) ;
#153 = DIRECTION ( 'NONE',  ( -4.333342374871280669E-31, -1.000000000000000000, -1.219727444046192488E-16 ) ) ;
#154 = LOCAL_TIME ( 13, 23, 44.00000000000000000, #114 ) ;
#155 = CARTESIAN_POINT ( 'NONE',  ( 2.199633243471174140E-13, 2.624579619658240413E-32, 63.00000000000000000 ) ) ;
#156 = FACE_OUTER_BOUND ( 'NONE', #123, .T. ) ;
#157 = DIRECTION ( 'NONE',  ( -3.491481338843133355E-15, 1.224646799147353207E-16, -1.000000000000000000 ) ) ;
#158 = CIRCLE ( 'NONE', #27, 3.800000000000002043 ) ;
#159 = DIRECTION ( 'NONE',  ( -3.491481338843133355E-15, 1.224646799147353207E-16, -1.000000000000000000 ) ) ;
#160 = CC_DESIGN_PERSON_AND_ORGANIZATION_ASSIGNMENT ( #110, #23, ( #94 ) ) ;
#161 = APPROVAL_ROLE ( '' ) ;
#162 = ORIENTED_EDGE ( 'NONE', *, *, #115, .T. ) ;
#163 = SHAPE_DEFINITION_REPRESENTATION ( #222, #136 ) ;
#164 = FACE_OUTER_BOUND ( 'NONE', #58, .T. ) ;
#165 = PRODUCT_DEFINITION_FORMATION_WITH_SPECIFIED_SOURCE ( 'ANY', '', #16, .NOT_KNOWN. ) ;
#166 = COORDINATED_UNIVERSAL_TIME_OFFSET ( 1, 0, .AHEAD. ) ;
#167 = APPROVAL_PERSON_ORGANIZATION ( #29, #76, #96 ) ;
#168 = ADVANCED_FACE ( 'NONE', ( #14 ), #205, .T. ) ;
#169 = CC_DESIGN_APPROVAL ( #79, ( #165 ) ) ;
#170 = CARTESIAN_POINT ( 'NONE',  ( -3.254963621650262419E-30, -3.800000000000002043, -9.322586334454706368E-16 ) ) ;
#171 = CARTESIAN_POINT ( 'NONE',  ( 0.0000000000000000000, 0.0000000000000000000, 0.0000000000000000000 ) ) ;
#172 = AXIS2_PLACEMENT_3D ( 'NONE', #152, #118, #33 ) ;
#173 = CARTESIAN_POINT ( 'NONE',  ( -6.413786353522005134E-31, 2.249653418127174030E-32, -1.836981421658449264E-16 ) ) ;
#174 =( GEOMETRIC_REPRESENTATION_CONTEXT ( 3 ) GLOBAL_UNCERTAINTY_ASSIGNED_CONTEXT ( ( #145 ) ) GLOBAL_UNIT_ASSIGNED_CONTEXT ( ( #67, #135, #213 ) ) REPRESENTATION_CONTEXT ( 'NONE', 'WORKASPACE' ) );
#175 = AXIS2_PLACEMENT_3D ( 'NONE', #155, #111, #24 ) ;
#176 = EDGE_LOOP ( 'NONE', ( #138 ) ) ;
#177 = FACE_OUTER_BOUND ( 'NONE', #55, .T. ) ;
#178 = EDGE_LOOP ( 'NONE', ( #124 ) ) ;
#179 = ORIENTED_EDGE ( 'NONE', *, *, #47, .F. ) ;
#180 = CARTESIAN_POINT ( 'NONE',  ( 6.982962677686252905E-16, -2.453312193277551015E-17, 0.1999999999999995948 ) ) ;
#181 = CONICAL_SURFACE ( 'NONE', #48, 3.500000000000001332, 0.7853981633974473908 ) ;
#182 = PERSON_AND_ORGANIZATION ( #209, #7 ) ;
#183 = DATE_AND_TIME ( #30, #18 ) ;
#184 = CLOSED_SHELL ( 'NONE', ( #22, #168, #133, #102 ) ) ;
#185 = VERTEX_POINT ( 'NONE', #34 ) ;
#186 = DIRECTION ( 'NONE',  ( 0.0000000000000000000, 0.0000000000000000000, 1.000000000000000000 ) ) ;
#187 = APPLICATION_PROTOCOL_DEFINITION ( 'international standard', 'config_control_design', 1994, #82 ) ;
#188 = DIRECTION ( 'NONE',  ( 0.0000000000000000000, 1.000000000000000000, 0.0000000000000000000 ) ) ;
#189 = CONICAL_SURFACE ( 'NONE', #128, 4.000000000000000000, 0.7853981633974428389 ) ;
#190 = ORIENTED_EDGE ( 'NONE', *, *, #32, .F. ) ;
#191 = EDGE_LOOP ( 'NONE', ( #70 ) ) ;
#192 = CARTESIAN_POINT ( 'NONE',  ( 5.586370142149013368E-14, -1.959434878635765131E-15, 16.00000000000000000 ) ) ;
#193 = CALENDAR_DATE ( 2021, 1, 11 ) ;
#194 = DIRECTION ( 'NONE',  ( -3.491481338843133355E-15, 1.224646799147353207E-16, -1.000000000000000000 ) ) ;
#195 = CC_DESIGN_DATE_AND_TIME_ASSIGNMENT ( #198, #142, ( #109 ) ) ;
#196 = AXIS2_PLACEMENT_3D ( 'NONE', #69, #72, #5 ) ;
#197 = PERSON_AND_ORGANIZATION_ROLE ( 'classification_officer' ) ;
#198 = DATE_AND_TIME ( #129, #99 ) ;
#199 = AXIS2_PLACEMENT_3D ( 'NONE', #201, #186, #126 ) ;
#200 = CARTESIAN_POINT ( 'NONE',  ( 6.982962677686252905E-16, -2.453312193277551015E-17, 0.1999999999999995948 ) ) ;
#201 = CARTESIAN_POINT ( 'NONE',  ( 0.0000000000000000000, 0.0000000000000000000, 0.0000000000000000000 ) ) ;
#202 = ADVANCED_FACE ( 'NONE', ( #49 ), #35, .F. ) ;
#203 = CARTESIAN_POINT ( 'NONE',  ( 5.586370142149013368E-14, 3.999999999999993339, 16.00000000000000000 ) ) ;
#204 = CC_DESIGN_PERSON_AND_ORGANIZATION_ASSIGNMENT ( #8, #197, ( #109 ) ) ;
#205 = PLANE ( 'NONE',  #95 ) ;
#206 = CIRCLE ( 'NONE', #151, 4.000000000000000000 ) ;
#207 = CYLINDRICAL_SURFACE ( 'NONE', #41, 3.999999999999998224 ) ;
#208 = ORIENTED_EDGE ( 'NONE', *, *, #32, .T. ) ;
#209 = PERSON ( 'UNSPECIFIED', 'UNSPECIFIED', 'UNSPECIFIED', ('UNSPECIFIED'), ('UNSPECIFIED'), ('UNSPECIFIED') ) ;
#210 = DIRECTION ( 'NONE',  ( 0.0000000000000000000, 1.000000000000000000, 0.0000000000000000000 ) ) ;
#211 = DIRECTION ( 'NONE',  ( -4.275831445896958607E-31, -1.000000000000000000, -1.224646799147353207E-16 ) ) ;
#212 = ORIENTED_EDGE ( 'NONE', *, *, #121, .F. ) ;
#213 =( NAMED_UNIT ( * ) SI_UNIT ( $, .STERADIAN. ) SOLID_ANGLE_UNIT ( ) );
#214 = MECHANICAL_CONTEXT ( 'NONE', #82, 'mechanical' ) ;
#215 = APPLICATION_CONTEXT ( 'configuration controlled 3d designs of mechanical parts and assemblies' ) ;
#216 = AXIS2_PLACEMENT_3D ( 'NONE', #192, #157, #53 ) ;
#217 = CARTESIAN_POINT ( 'NONE',  ( 5.586370142149013368E-14, -1.959434878635765131E-15, 16.00000000000000000 ) ) ;
#218 = DATE_TIME_ROLE ( 'creation_date' ) ;
#219 = PERSON_AND_ORGANIZATION ( #209, #7 ) ;
#220 = APPLICATION_PROTOCOL_DEFINITION ( 'international standard', 'config_control_design', 1994, #215 ) ;
#221 = DIRECTION ( 'NONE',  ( -4.275831445896958607E-31, -1.000000000000000000, -1.224646799147353207E-16 ) ) ;
#222 = PRODUCT_DEFINITION_SHAPE ( 'NONE', 'NONE',  #94 ) ;
#223 = DIRECTION ( 'NONE',  ( 3.491481338843133355E-15, -1.224646799147353207E-16, 1.000000000000000000 ) ) ;
ENDSEC;
END-ISO-10303-21;
