ISO-10303-21;
HEADER;
FILE_DESCRIPTION (( 'STEP AP203' ),
    '1' );
FILE_NAME ('57691.step',
    '2021-11-01T12:23:43',
    ( '' ),
    ( '' ),
    'SwSTEP 2.0',
    'SolidWorks 2019',
    '' );
FILE_SCHEMA (( 'CONFIG_CONTROL_DESIGN' ));
ENDSEC;

DATA;
#1 = FACE_OUTER_BOUND ( 'NONE', #107, .T. ) ;
#2 = DIRECTION ( 'NONE',  ( -4.275831445896958607E-31, -1.000000000000000000, -1.224646799147353207E-16 ) ) ;
#3 = CC_DESIGN_APPROVAL ( #157, ( #91 ) ) ;
#4 = CYLINDRICAL_SURFACE ( 'NONE', #64, 3.999999999999998224 ) ;
#5 = CARTESIAN_POINT ( 'NONE',  ( 2.199633243471174140E-13, 3.499999999999993783, 63.00000000000000000 ) ) ;
#6 = VERTEX_POINT ( 'NONE', #230 ) ;
#7 = CARTESIAN_POINT ( 'NONE',  ( 0.0000000000000000000, 0.0000000000000000000, 0.0000000000000000000 ) ) ;
#8 = CALENDAR_DATE ( 2021, 1, 11 ) ;
#9 = APPROVAL_ROLE ( '' ) ;
#10 = PERSON_AND_ORGANIZATION ( #126, #229 ) ;
#11 = CARTESIAN_POINT ( 'NONE',  ( 4.538925740496073362E-14, 2.999519565323708647E-32, 13.00000000000000000 ) ) ;
#12 = DATE_TIME_ROLE ( 'classification_date' ) ;
#13 = AXIS2_PLACEMENT_3D ( 'NONE', #19, #55, #22 ) ;
#14 = PERSON_AND_ORGANIZATION ( #126, #229 ) ;
#15 = PLANE ( 'NONE',  #23 ) ;
#16 = CARTESIAN_POINT ( 'NONE',  ( 6.982962677686224309E-16, -2.453312193277541154E-17, 0.1999999999999987899 ) ) ;
#17 = ORIENTED_EDGE ( 'NONE', *, *, #172, .T. ) ;
#18 = EDGE_LOOP ( 'NONE', ( #77 ) ) ;
#19 = CARTESIAN_POINT ( 'NONE',  ( -6.413731847436034514E-31, 0.0000000000000000000, -1.836965810494968570E-16 ) ) ;
#20 = AXIS2_PLACEMENT_3D ( 'NONE', #166, #93, #168 ) ;
#21 = CARTESIAN_POINT ( 'NONE',  ( 4.538925740496072731E-14, -1.595773164707346130E-15, 12.99999999999999822 ) ) ;
#22 = DIRECTION ( 'NONE',  ( -4.285855558155653280E-31, -1.000000000000000000, -1.227517819005651059E-16 ) ) ;
#23 = AXIS2_PLACEMENT_3D ( 'NONE', #164, #147, #70 ) ;
#24 = LOCAL_TIME ( 13, 23, 43.00000000000000000, #215 ) ;
#25 = DIRECTION ( 'NONE',  ( 0.0000000000000000000, 1.000000000000000000, 0.0000000000000000000 ) ) ;
#26 = COORDINATED_UNIVERSAL_TIME_OFFSET ( 1, 0, .AHEAD. ) ;
#27 = EDGE_CURVE ( 'NONE', #6, #6, #216, .T. ) ;
#28 = PERSON_AND_ORGANIZATION_ROLE ( 'creator' ) ;
#29 = AXIS2_PLACEMENT_3D ( 'NONE', #191, #116, #92 ) ;
#30 = PLANE ( 'NONE',  #122 ) ;
#31 = CALENDAR_DATE ( 2021, 1, 11 ) ;
#32 = AXIS2_PLACEMENT_3D ( 'NONE', #21, #59, #228 ) ;
#33 = EDGE_LOOP ( 'NONE', ( #35 ) ) ;
#34 = DIRECTION ( 'NONE',  ( 0.0000000000000000000, -1.000000000000000000, 0.0000000000000000000 ) ) ;
#35 = ORIENTED_EDGE ( 'NONE', *, *, #172, .F. ) ;
#36 = PRODUCT_RELATED_PRODUCT_CATEGORY ( 'detail', '', ( #234 ) ) ;
#37 = CARTESIAN_POINT ( 'NONE',  ( 4.538925740496073362E-14, 2.999519565323708647E-32, 13.00000000000000000 ) ) ;
#38 = DIRECTION ( 'NONE',  ( 4.275831445896958607E-31, 1.000000000000000000, 1.224646799147353207E-16 ) ) ;
#39 = CARTESIAN_POINT ( 'NONE',  ( 2.199633243471174140E-13, -7.715274834628325378E-15, 63.00000000000000000 ) ) ;
#40 = CIRCLE ( 'NONE', #169, 4.000000000000000888 ) ;
#41 = CARTESIAN_POINT ( 'NONE',  ( 4.538925740496072731E-14, -3.249999999999999556, 12.99999999999999822 ) ) ;
#42 = CC_DESIGN_PERSON_AND_ORGANIZATION_ASSIGNMENT ( #14, #28, ( #129 ) ) ;
#43 = VERTEX_POINT ( 'NONE', #131 ) ;
#44 = PERSON_AND_ORGANIZATION_ROLE ( 'creator' ) ;
#45 = EDGE_LOOP ( 'NONE', ( #218 ) ) ;
#46 = CIRCLE ( 'NONE', #124, 3.249999999999999556 ) ;
#47 = LOCAL_TIME ( 13, 23, 43.00000000000000000, #26 ) ;
#48 = ADVANCED_FACE ( 'NONE', ( #1 ), #15, .F. ) ;
#49 = EDGE_LOOP ( 'NONE', ( #50 ) ) ;
#50 = ORIENTED_EDGE ( 'NONE', *, *, #78, .F. ) ;
#51 = DIRECTION ( 'NONE',  ( 4.275831445896958607E-31, 1.000000000000000000, 1.224646799147353207E-16 ) ) ;
#52 = DIRECTION ( 'NONE',  ( -4.148156803295585723E-31, -1.000000000000000000, -1.251002506714043786E-16 ) ) ;
#53 = CC_DESIGN_APPROVAL ( #235, ( #84 ) ) ;
#54 = PLANE ( 'NONE',  #225 ) ;
#55 = DIRECTION ( 'NONE',  ( 3.491481338843133355E-15, -1.227517819005651059E-16, 1.000000000000000000 ) ) ;
#56 = VERTEX_POINT ( 'NONE', #41 ) ;
#57 =( GEOMETRIC_REPRESENTATION_CONTEXT ( 3 ) GLOBAL_UNCERTAINTY_ASSIGNED_CONTEXT ( ( #181 ) ) GLOBAL_UNIT_ASSIGNED_CONTEXT ( ( #165, #74, #170 ) ) REPRESENTATION_CONTEXT ( 'NONE', 'WORKASPACE' ) );
#58 = DIRECTION ( 'NONE',  ( -4.275831445896958607E-31, -1.000000000000000000, -1.224646799147353207E-16 ) ) ;
#59 = DIRECTION ( 'NONE',  ( 3.491481338843133355E-15, -1.227517819005651059E-16, 1.000000000000000000 ) ) ;
#60 = APPROVAL_ROLE ( '' ) ;
#61 = MECHANICAL_CONTEXT ( 'NONE', #189, 'mechanical' ) ;
#62 = PERSON_AND_ORGANIZATION ( #126, #229 ) ;
#63 = FACE_OUTER_BOUND ( 'NONE', #49, .T. ) ;
#64 = AXIS2_PLACEMENT_3D ( 'NONE', #7, #212, #38 ) ;
#65 = APPROVAL_PERSON_ORGANIZATION ( #217, #235, #60 ) ;
#66 = ADVANCED_FACE ( 'NONE', ( #83, #146 ), #99, .T. ) ;
#67 = EDGE_LOOP ( 'NONE', ( #182 ) ) ;
#68 = FACE_OUTER_BOUND ( 'NONE', #33, .T. ) ;
#69 = EDGE_LOOP ( 'NONE', ( #102 ) ) ;
#70 = DIRECTION ( 'NONE',  ( -4.275831445896958607E-31, -1.000000000000000000, -1.224646799147353207E-16 ) ) ;
#71 = CARTESIAN_POINT ( 'NONE',  ( 6.982962677686210504E-16, -3.249999999999999556, 0.1999999999999983735 ) ) ;
#72 = VERTEX_POINT ( 'NONE', #152 ) ;
#73 = CIRCLE ( 'NONE', #158, 3.500000000000001332 ) ;
#74 =( NAMED_UNIT ( * ) PLANE_ANGLE_UNIT ( ) SI_UNIT ( $, .RADIAN. ) );
#75 = CALENDAR_DATE ( 2021, 1, 11 ) ;
#76 = LOCAL_TIME ( 13, 23, 43.00000000000000000, #237 ) ;
#77 = ORIENTED_EDGE ( 'NONE', *, *, #27, .T. ) ;
#78 = EDGE_CURVE ( 'NONE', #151, #151, #46, .T. ) ;
#79 = PERSON_AND_ORGANIZATION ( #126, #229 ) ;
#80 = EDGE_LOOP ( 'NONE', ( #222 ) ) ;
#81 = COORDINATED_UNIVERSAL_TIME_OFFSET ( 1, 0, .AHEAD. ) ;
#82 = DATE_AND_TIME ( #31, #141 ) ;
#83 = FACE_OUTER_BOUND ( 'NONE', #202, .T. ) ;
#84 = SECURITY_CLASSIFICATION ( '', '', #213 ) ;
#85 = FACE_OUTER_BOUND ( 'NONE', #176, .T. ) ;
#86 = ADVANCED_FACE ( 'NONE', ( #224, #63 ), #105, .T. ) ;
#87 = FACE_OUTER_BOUND ( 'NONE', #18, .T. ) ;
#88 = ORIENTED_EDGE ( 'NONE', *, *, #204, .F. ) ;
#89 = CARTESIAN_POINT ( 'NONE',  ( 5.719722842808384486E-14, 3.999999999999996447, 16.38193731461716851 ) ) ;
#90 = APPROVAL_PERSON_ORGANIZATION ( #79, #149, #9 ) ;
#91 = PRODUCT_DEFINITION ( 'UNKNOWN', '', #129, #106 ) ;
#92 = DIRECTION ( 'NONE',  ( 0.0000000000000000000, 1.000000000000000000, 0.0000000000000000000 ) ) ;
#93 = DIRECTION ( 'NONE',  ( 3.491481338843133355E-15, -1.226656096638776648E-16, 1.000000000000000000 ) ) ;
#94 = VERTEX_POINT ( 'NONE', #89 ) ;
#95 = FACE_OUTER_BOUND ( 'NONE', #45, .T. ) ;
#96 = DATE_AND_TIME ( #75, #47 ) ;
#97 = DATE_AND_TIME ( #8, #24 ) ;
#98 = ADVANCED_FACE ( 'NONE', ( #87, #85 ), #132, .F. ) ;
#99 = CONICAL_SURFACE ( 'NONE', #109, 3.500000000000001332, 0.7853981633974473908 ) ;
#100 = ORIENTED_EDGE ( 'NONE', *, *, #209, .F. ) ;
#101 = APPROVAL_STATUS ( 'not_yet_approved' ) ;
#102 = ORIENTED_EDGE ( 'NONE', *, *, #167, .T. ) ;
#103 = PERSON_AND_ORGANIZATION_ROLE ( 'design_supplier' ) ;
#104 = MANIFOLD_SOLID_BREP ( 'Corps-Déplacer/Copier1[2]', #121 ) ;
#105 = CONICAL_SURFACE ( 'NONE', #221, 3.249999999999999556, 0.7853981633974430610 ) ;
#106 = DESIGN_CONTEXT ( 'detailed design', #136, 'design' ) ;
#107 = EDGE_LOOP ( 'NONE', ( #125 ) ) ;
#108 = DIRECTION ( 'NONE',  ( 3.491481338843133355E-15, -1.226656096638776648E-16, 1.000000000000000000 ) ) ;
#109 = AXIS2_PLACEMENT_3D ( 'NONE', #156, #150, #148 ) ;
#110 = DIRECTION ( 'NONE',  ( 3.491481338843133355E-15, -1.227517819005651059E-16, 1.000000000000000000 ) ) ;
#111 = ADVANCED_FACE ( 'NONE', ( #183 ), #161, .T. ) ;
#112 = AXIS2_PLACEMENT_3D ( 'NONE', #127, #110, #178 ) ;
#113 = DIRECTION ( 'NONE',  ( 0.0000000000000000000, 1.000000000000000000, 0.0000000000000000000 ) ) ;
#114 = CARTESIAN_POINT ( 'NONE',  ( 2.182175836776958284E-13, -7.654042494670957804E-15, 62.50000000000000000 ) ) ;
#115 = CC_DESIGN_DATE_AND_TIME_ASSIGNMENT ( #198, #196, ( #91 ) ) ;
#116 = DIRECTION ( 'NONE',  ( -3.491481338843133355E-15, 1.227517819005651059E-16, -1.000000000000000000 ) ) ;
#117 = CLOSED_SHELL ( 'NONE', ( #233, #66, #145, #98, #153 ) ) ;
#118 = ADVANCED_BREP_SHAPE_REPRESENTATION ( '57691', ( #187, #104, #206 ), #57 ) ;
#119 = PERSON_AND_ORGANIZATION ( #126, #229 ) ;
#120 = CC_DESIGN_PERSON_AND_ORGANIZATION_ASSIGNMENT ( #174, #200, ( #234 ) ) ;
#121 = CLOSED_SHELL ( 'NONE', ( #193, #111, #86, #48 ) ) ;
#122 = AXIS2_PLACEMENT_3D ( 'NONE', #223, #227, #51 ) ;
#123 = COORDINATED_UNIVERSAL_TIME_OFFSET ( 1, 0, .AHEAD. ) ;
#124 = AXIS2_PLACEMENT_3D ( 'NONE', #199, #108, #238 ) ;
#125 = ORIENTED_EDGE ( 'NONE', *, *, #220, .F. ) ;
#126 = PERSON ( 'UNSPECIFIED', 'UNSPECIFIED', 'UNSPECIFIED', ('UNSPECIFIED'), ('UNSPECIFIED'), ('UNSPECIFIED') ) ;
#127 = CARTESIAN_POINT ( 'NONE',  ( 4.538925740496072731E-14, -1.734723475976807094E-15, 12.99999999999999822 ) ) ;
#128 = FACE_OUTER_BOUND ( 'NONE', #188, .T. ) ;
#129 = PRODUCT_DEFINITION_FORMATION_WITH_SPECIFIED_SOURCE ( 'ANY', '', #234, .NOT_KNOWN. ) ;
#130 = APPLICATION_PROTOCOL_DEFINITION ( 'international standard', 'config_control_design', 1994, #189 ) ;
#131 = CARTESIAN_POINT ( 'NONE',  ( -2.612536591061395445E-30, -3.050000000000002487, -7.482602189496542999E-16 ) ) ;
#132 = TOROIDAL_SURFACE ( 'NONE', #112, 11.24999999999999822, 8.000000000000000000 ) ;
#133 = FACE_OUTER_BOUND ( 'NONE', #80, .T. ) ;
#134 = CC_DESIGN_APPROVAL ( #149, ( #129 ) ) ;
#135 = DIRECTION ( 'NONE',  ( -3.491481338843133355E-15, 1.224646799147353207E-16, -1.000000000000000000 ) ) ;
#136 = APPLICATION_CONTEXT ( 'configuration controlled 3d designs of mechanical parts and assemblies' ) ;
#137 = APPROVAL_STATUS ( 'not_yet_approved' ) ;
#138 = CALENDAR_DATE ( 2021, 1, 11 ) ;
#139 = ORIENTED_EDGE ( 'NONE', *, *, #209, .T. ) ;
#140 = PERSON_AND_ORGANIZATION_ROLE ( 'classification_officer' ) ;
#141 = LOCAL_TIME ( 13, 23, 43.00000000000000000, #81 ) ;
#142 = ORIENTED_EDGE ( 'NONE', *, *, #220, .T. ) ;
#143 = PERSON_AND_ORGANIZATION ( #126, #229 ) ;
#144 = AXIS2_PLACEMENT_3D ( 'NONE', #37, #243, #2 ) ;
#145 = ADVANCED_FACE ( 'NONE', ( #68 ), #30, .F. ) ;
#146 = FACE_BOUND ( 'NONE', #186, .T. ) ;
#147 = DIRECTION ( 'NONE',  ( 3.491481338843133355E-15, -1.224646799147353207E-16, 1.000000000000000000 ) ) ;
#148 = DIRECTION ( 'NONE',  ( 0.0000000000000000000, 1.000000000000000000, 0.0000000000000000000 ) ) ;
#149 = APPROVAL ( #101, 'UNSPECIFIED' ) ;
#150 = DIRECTION ( 'NONE',  ( -3.491481338843133355E-15, 1.224646799147353207E-16, -1.000000000000000000 ) ) ;
#151 = VERTEX_POINT ( 'NONE', #71 ) ;
#152 = CARTESIAN_POINT ( 'NONE',  ( 2.182175836776958284E-13, 3.999999999999993339, 62.50000000000000000 ) ) ;
#153 = ADVANCED_FACE ( 'NONE', ( #128 ), #54, .F. ) ;
#154 = CALENDAR_DATE ( 2021, 1, 11 ) ;
#155 = APPROVAL_DATE_TIME ( #82, #157 ) ;
#156 = CARTESIAN_POINT ( 'NONE',  ( 2.199633243471174140E-13, -7.715274834628325378E-15, 63.00000000000000000 ) ) ;
#157 = APPROVAL ( #137, 'UNSPECIFIED' ) ;
#158 = AXIS2_PLACEMENT_3D ( 'NONE', #39, #192, #113 ) ;
#159 = APPROVAL_STATUS ( 'not_yet_approved' ) ;
#160 = DIRECTION ( 'NONE',  ( 3.491481338843133355E-15, -1.226656096638776648E-16, 1.000000000000000000 ) ) ;
#161 = PLANE ( 'NONE',  #144 ) ;
#162 = CC_DESIGN_PERSON_AND_ORGANIZATION_ASSIGNMENT ( #62, #140, ( #84 ) ) ;
#163 = EDGE_LOOP ( 'NONE', ( #142 ) ) ;
#164 = CARTESIAN_POINT ( 'NONE',  ( -6.413786353522005134E-31, 2.249653418127174030E-32, -1.836981421658449264E-16 ) ) ;
#165 =( LENGTH_UNIT ( ) NAMED_UNIT ( * ) SI_UNIT ( .MILLI., .METRE. ) );
#166 = CARTESIAN_POINT ( 'NONE',  ( -1.306268295530697547E-30, 1.929403387497595795E-32, -3.741301094748271500E-16 ) ) ;
#167 = EDGE_CURVE ( 'NONE', #56, #56, #175, .T. ) ;
#168 = DIRECTION ( 'NONE',  ( -4.282846870592448247E-31, -1.000000000000000000, -1.226656096638776648E-16 ) ) ;
#169 = AXIS2_PLACEMENT_3D ( 'NONE', #114, #135, #25 ) ;
#170 =( NAMED_UNIT ( * ) SI_UNIT ( $, .STERADIAN. ) SOLID_ANGLE_UNIT ( ) );
#171 = FACE_OUTER_BOUND ( 'NONE', #241, .T. ) ;
#172 = EDGE_CURVE ( 'NONE', #231, #231, #73, .T. ) ;
#173 = DATE_AND_TIME ( #154, #185 ) ;
#174 = PERSON_AND_ORGANIZATION ( #126, #229 ) ;
#175 = CIRCLE ( 'NONE', #32, 3.249999999999997780 ) ;
#176 = EDGE_LOOP ( 'NONE', ( #139 ) ) ;
#177 = APPROVAL_DATE_TIME ( #96, #149 ) ;
#178 = DIRECTION ( 'NONE',  ( -4.341035390681907420E-31, -1.000000000000000000, -1.227517819005651059E-16 ) ) ;
#179 = CIRCLE ( 'NONE', #29, 3.999999999999998224 ) ;
#180 = CC_DESIGN_DATE_AND_TIME_ASSIGNMENT ( #173, #12, ( #84 ) ) ;
#181 = UNCERTAINTY_MEASURE_WITH_UNIT (LENGTH_MEASURE( 1.000000000000000082E-05 ), #165, 'distance_accuracy_value', 'NONE');
#182 = ORIENTED_EDGE ( 'NONE', *, *, #78, .T. ) ;
#183 = FACE_OUTER_BOUND ( 'NONE', #69, .T. ) ;
#184 = APPROVAL_PERSON_ORGANIZATION ( #10, #157, #219 ) ;
#185 = LOCAL_TIME ( 13, 23, 43.00000000000000000, #123 ) ;
#186 = EDGE_LOOP ( 'NONE', ( #17 ) ) ;
#187 = MANIFOLD_SOLID_BREP ( 'Corps-Déplacer/Copier1[1]', #117 ) ;
#188 = EDGE_LOOP ( 'NONE', ( #205 ) ) ;
#189 = APPLICATION_CONTEXT ( 'configuration controlled 3d designs of mechanical parts and assemblies' ) ;
#190 = DIRECTION ( 'NONE',  ( 1.000000000000000000, 0.0000000000000000000, 0.0000000000000000000 ) ) ;
#191 = CARTESIAN_POINT ( 'NONE',  ( 5.719722842808384486E-14, -2.149862307622077181E-15, 16.38193731461716851 ) ) ;
#192 = DIRECTION ( 'NONE',  ( -3.491481338843133355E-15, 1.224646799147353207E-16, -1.000000000000000000 ) ) ;
#193 = ADVANCED_FACE ( 'NONE', ( #133, #195 ), #211, .T. ) ;
#194 = CC_DESIGN_PERSON_AND_ORGANIZATION_ASSIGNMENT ( #119, #44, ( #91 ) ) ;
#195 = FACE_OUTER_BOUND ( 'NONE', #67, .T. ) ;
#196 = DATE_TIME_ROLE ( 'creation_date' ) ;
#197 = PRODUCT_DEFINITION_SHAPE ( 'NONE', 'NONE',  #91 ) ;
#198 = DATE_AND_TIME ( #138, #76 ) ;
#199 = CARTESIAN_POINT ( 'NONE',  ( 6.982962677686224309E-16, -2.453312193277541154E-17, 0.1999999999999987899 ) ) ;
#200 = PERSON_AND_ORGANIZATION_ROLE ( 'design_owner' ) ;
#201 = CIRCLE ( 'NONE', #20, 3.050000000000002487 ) ;
#202 = EDGE_LOOP ( 'NONE', ( #88 ) ) ;
#203 = DIRECTION ( 'NONE',  ( 3.491481338843133355E-15, -1.227517819005651059E-16, 1.000000000000000000 ) ) ;
#204 = EDGE_CURVE ( 'NONE', #72, #72, #40, .T. ) ;
#205 = ORIENTED_EDGE ( 'NONE', *, *, #27, .F. ) ;
#206 = AXIS2_PLACEMENT_3D ( 'NONE', #232, #208, #190 ) ;
#207 = CARTESIAN_POINT ( 'NONE',  ( 4.538925740496072731E-14, -1.595773164707346130E-15, 12.99999999999999822 ) ) ;
#208 = DIRECTION ( 'NONE',  ( 0.0000000000000000000, 0.0000000000000000000, 1.000000000000000000 ) ) ;
#209 = EDGE_CURVE ( 'NONE', #94, #94, #179, .T. ) ;
#210 = DIRECTION ( 'NONE',  ( 3.491481338843133355E-15, -1.224646799147353207E-16, 1.000000000000000000 ) ) ;
#211 = CYLINDRICAL_SURFACE ( 'NONE', #13, 3.249999999999997780 ) ;
#212 = DIRECTION ( 'NONE',  ( -3.491481338843133355E-15, 1.224646799147353207E-16, -1.000000000000000000 ) ) ;
#213 = SECURITY_CLASSIFICATION_LEVEL ( 'unclassified' ) ;
#214 = APPLICATION_PROTOCOL_DEFINITION ( 'international standard', 'config_control_design', 1994, #136 ) ;
#215 = COORDINATED_UNIVERSAL_TIME_OFFSET ( 1, 0, .AHEAD. ) ;
#216 = CIRCLE ( 'NONE', #242, 3.249999999999997780 ) ;
#217 = PERSON_AND_ORGANIZATION ( #126, #229 ) ;
#218 = ORIENTED_EDGE ( 'NONE', *, *, #204, .T. ) ;
#219 = APPROVAL_ROLE ( '' ) ;
#220 = EDGE_CURVE ( 'NONE', #43, #43, #201, .T. ) ;
#221 = AXIS2_PLACEMENT_3D ( 'NONE', #16, #160, #52 ) ;
#222 = ORIENTED_EDGE ( 'NONE', *, *, #167, .F. ) ;
#223 = CARTESIAN_POINT ( 'NONE',  ( 2.199633243471174140E-13, 2.624579619658240413E-32, 63.00000000000000000 ) ) ;
#224 = FACE_BOUND ( 'NONE', #163, .T. ) ;
#225 = AXIS2_PLACEMENT_3D ( 'NONE', #11, #210, #58 ) ;
#226 = CC_DESIGN_SECURITY_CLASSIFICATION ( #84, ( #129 ) ) ;
#227 = DIRECTION ( 'NONE',  ( -3.491481338843133355E-15, 1.224646799147353207E-16, -1.000000000000000000 ) ) ;
#228 = DIRECTION ( 'NONE',  ( 0.0000000000000000000, -1.000000000000000000, 0.0000000000000000000 ) ) ;
#229 = ORGANIZATION ( 'UNSPECIFIED', 'UNSPECIFIED', '' ) ;
#230 = CARTESIAN_POINT ( 'NONE',  ( 4.538925740496072731E-14, -3.249999999999999556, 12.99999999999999822 ) ) ;
#231 = VERTEX_POINT ( 'NONE', #5 ) ;
#232 = CARTESIAN_POINT ( 'NONE',  ( 0.0000000000000000000, 0.0000000000000000000, 0.0000000000000000000 ) ) ;
#233 = ADVANCED_FACE ( 'NONE', ( #95, #171 ), #4, .T. ) ;
#234 = PRODUCT ( '57691', '57691', '', ( #61 ) ) ;
#235 = APPROVAL ( #159, 'UNSPECIFIED' ) ;
#236 = SHAPE_DEFINITION_REPRESENTATION ( #197, #118 ) ;
#237 = COORDINATED_UNIVERSAL_TIME_OFFSET ( 1, 0, .AHEAD. ) ;
#238 = DIRECTION ( 'NONE',  ( -4.148156803295585723E-31, -1.000000000000000000, -1.251002506714043786E-16 ) ) ;
#239 = APPROVAL_DATE_TIME ( #97, #235 ) ;
#240 = CC_DESIGN_PERSON_AND_ORGANIZATION_ASSIGNMENT ( #143, #103, ( #129 ) ) ;
#241 = EDGE_LOOP ( 'NONE', ( #100 ) ) ;
#242 = AXIS2_PLACEMENT_3D ( 'NONE', #207, #203, #34 ) ;
#243 = DIRECTION ( 'NONE',  ( 3.491481338843133355E-15, -1.224646799147353207E-16, 1.000000000000000000 ) ) ;
ENDSEC;
END-ISO-10303-21;
