ISO-10303-21;
HEADER;
FILE_DESCRIPTION (( 'STEP AP203' ),
    '1' );
FILE_NAME ('57690.step',
    '2021-11-01T12:23:42',
    ( '' ),
    ( '' ),
    'SwSTEP 2.0',
    'SolidWorks 2019',
    '' );
FILE_SCHEMA (( 'CONFIG_CONTROL_DESIGN' ));
ENDSEC;

DATA;
#1 = APPROVAL_ROLE ( '' ) ;
#2 = APPROVAL_DATE_TIME ( #129, #159 ) ;
#3 = PERSON_AND_ORGANIZATION_ROLE ( 'design_supplier' ) ;
#4 = PERSON ( 'UNSPECIFIED', 'UNSPECIFIED', 'UNSPECIFIED', ('UNSPECIFIED'), ('UNSPECIFIED'), ('UNSPECIFIED') ) ;
#5 = CALENDAR_DATE ( 2021, 1, 11 ) ;
#6 = AXIS2_PLACEMENT_3D ( 'NONE', #149, #135, #176 ) ;
#7 = DIRECTION ( 'NONE',  ( 3.491481338843133355E-15, -1.224646799147353207E-16, 1.000000000000000000 ) ) ;
#8 = EDGE_LOOP ( 'NONE', ( #145 ) ) ;
#9 = EDGE_LOOP ( 'NONE', ( #219 ) ) ;
#10 =( NAMED_UNIT ( * ) PLANE_ANGLE_UNIT ( ) SI_UNIT ( $, .RADIAN. ) );
#11 = CARTESIAN_POINT ( 'NONE',  ( 3.491481338843133986E-14, -1.227517819005651157E-15, 10.00000000000000178 ) ) ;
#12 = ORIENTED_EDGE ( 'NONE', *, *, #45, .F. ) ;
#13 = CARTESIAN_POINT ( 'NONE',  ( -2.357220556985607902E-30, -2.749999999999999112, -6.751348004531077125E-16 ) ) ;
#14 = CIRCLE ( 'NONE', #6, 2.599999999999994760 ) ;
#15 = EDGE_LOOP ( 'NONE', ( #31 ) ) ;
#16 = MECHANICAL_CONTEXT ( 'NONE', #46, 'mechanical' ) ;
#17 = CARTESIAN_POINT ( 'NONE',  ( 1.976178437785213353E-13, -6.931500883174018694E-15, 56.59999999999999432 ) ) ;
#18 = CARTESIAN_POINT ( 'NONE',  ( 4.184300688578257414E-14, 2.999999999999989342, 11.98431348329841839 ) ) ;
#19 = MANIFOLD_SOLID_BREP ( 'Corps-Déplacer/Copier1[2]', #25 ) ;
#20 = CARTESIAN_POINT ( 'NONE',  ( -6.413731847436034514E-31, 0.0000000000000000000, -1.836965810494968570E-16 ) ) ;
#21 = AXIS2_PLACEMENT_3D ( 'NONE', #38, #197, #78 ) ;
#22 = DATE_AND_TIME ( #207, #30 ) ;
#23 = EDGE_CURVE ( 'NONE', #170, #170, #14, .T. ) ;
#24 = MANIFOLD_SOLID_BREP ( 'Corps-Déplacer/Copier1[1]', #65 ) ;
#25 = CLOSED_SHELL ( 'NONE', ( #211, #187, #167 ) ) ;
#26 = PERSON_AND_ORGANIZATION ( #4, #86 ) ;
#27 = APPROVAL_ROLE ( '' ) ;
#28 = CC_DESIGN_PERSON_AND_ORGANIZATION_ASSIGNMENT ( #41, #113, ( #108 ) ) ;
#29 = APPROVAL ( #80, 'UNSPECIFIED' ) ;
#30 = LOCAL_TIME ( 13, 23, 42.00000000000000000, #127 ) ;
#31 = ORIENTED_EDGE ( 'NONE', *, *, #95, .T. ) ;
#32 = DIRECTION ( 'NONE',  ( 3.491481338843133355E-15, -1.227517819005651059E-16, 1.000000000000000000 ) ) ;
#33 = EDGE_LOOP ( 'NONE', ( #40 ) ) ;
#34 = CARTESIAN_POINT ( 'NONE',  ( 0.0000000000000000000, 0.0000000000000000000, 0.0000000000000000000 ) ) ;
#35 = AXIS2_PLACEMENT_3D ( 'NONE', #157, #76, #133 ) ;
#36 = SECURITY_CLASSIFICATION ( '', '', #163 ) ;
#37 = FACE_OUTER_BOUND ( 'NONE', #221, .T. ) ;
#38 = CARTESIAN_POINT ( 'NONE',  ( 3.491481338843133355E-14, -1.734723475976807094E-15, 10.00000000000000000 ) ) ;
#39 = FACE_OUTER_BOUND ( 'NONE', #71, .T. ) ;
#40 = ORIENTED_EDGE ( 'NONE', *, *, #95, .F. ) ;
#41 = PERSON_AND_ORGANIZATION ( #4, #86 ) ;
#42 = ADVANCED_FACE ( 'NONE', ( #37 ), #119, .F. ) ;
#43 = AXIS2_PLACEMENT_3D ( 'NONE', #121, #56, #153 ) ;
#44 = PERSON_AND_ORGANIZATION_ROLE ( 'classification_officer' ) ;
#45 = EDGE_CURVE ( 'NONE', #91, #91, #191, .T. ) ;
#46 = APPLICATION_CONTEXT ( 'configuration controlled 3d designs of mechanical parts and assemblies' ) ;
#47 = EDGE_LOOP ( 'NONE', ( #174 ) ) ;
#48 = EDGE_LOOP ( 'NONE', ( #126 ) ) ;
#49 =( GEOMETRIC_REPRESENTATION_CONTEXT ( 3 ) GLOBAL_UNCERTAINTY_ASSIGNED_CONTEXT ( ( #172 ) ) GLOBAL_UNIT_ASSIGNED_CONTEXT ( ( #186, #10, #107 ) ) REPRESENTATION_CONTEXT ( 'NONE', 'WORKASPACE' ) );
#50 = CARTESIAN_POINT ( 'NONE',  ( 3.491481338843133986E-14, -2.749999999999998224, 10.00000000000000178 ) ) ;
#51 = FACE_OUTER_BOUND ( 'NONE', #213, .T. ) ;
#52 = CC_DESIGN_PERSON_AND_ORGANIZATION_ASSIGNMENT ( #180, #3, ( #185 ) ) ;
#53 = VERTEX_POINT ( 'NONE', #154 ) ;
#54 = FACE_OUTER_BOUND ( 'NONE', #47, .T. ) ;
#55 = VERTEX_POINT ( 'NONE', #13 ) ;
#56 = DIRECTION ( 'NONE',  ( 3.491481338843133355E-15, -1.227517819005651059E-16, 1.000000000000000000 ) ) ;
#57 = DIRECTION ( 'NONE',  ( 1.000000000000000000, 0.0000000000000000000, 0.0000000000000000000 ) ) ;
#58 = CYLINDRICAL_SURFACE ( 'NONE', #179, 2.999999999999991562 ) ;
#59 = EDGE_LOOP ( 'NONE', ( #109 ) ) ;
#60 = PLANE ( 'NONE',  #35 ) ;
#61 = PERSON_AND_ORGANIZATION ( #4, #86 ) ;
#62 = AXIS2_PLACEMENT_3D ( 'NONE', #70, #88, #184 ) ;
#63 = APPROVAL_DATE_TIME ( #115, #29 ) ;
#64 = CALENDAR_DATE ( 2021, 1, 11 ) ;
#65 = CLOSED_SHELL ( 'NONE', ( #165, #75, #42, #177, #143 ) ) ;
#66 = CC_DESIGN_SECURITY_CLASSIFICATION ( #36, ( #185 ) ) ;
#67 = EDGE_CURVE ( 'NONE', #136, #136, #148, .T. ) ;
#68 = DIRECTION ( 'NONE',  ( -3.491481338843133355E-15, 1.224646799147353207E-16, -1.000000000000000000 ) ) ;
#69 = PRODUCT_RELATED_PRODUCT_CATEGORY ( 'detail', '', ( #108 ) ) ;
#70 = CARTESIAN_POINT ( 'NONE',  ( 4.184300688578257414E-14, -1.978301491901005241E-15, 11.98431348329841839 ) ) ;
#71 = EDGE_LOOP ( 'NONE', ( #151 ) ) ;
#72 = FACE_OUTER_BOUND ( 'NONE', #15, .T. ) ;
#73 = DIRECTION ( 'NONE',  ( 0.0000000000000000000, -1.000000000000000000, 0.0000000000000000000 ) ) ;
#74 = APPLICATION_PROTOCOL_DEFINITION ( 'international standard', 'config_control_design', 1994, #46 ) ;
#75 = ADVANCED_FACE ( 'NONE', ( #51, #203 ), #93, .T. ) ;
#76 = DIRECTION ( 'NONE',  ( 3.491481338843133355E-15, -1.224646799147353207E-16, 1.000000000000000000 ) ) ;
#77 = FACE_OUTER_BOUND ( 'NONE', #169, .T. ) ;
#78 = DIRECTION ( 'NONE',  ( -4.342506852882606994E-31, -1.000000000000000000, -1.227517819005651059E-16 ) ) ;
#79 = TOROIDAL_SURFACE ( 'NONE', #21, 10.74999999999999822, 8.000000000000000000 ) ;
#80 = APPROVAL_STATUS ( 'not_yet_approved' ) ;
#81 = CALENDAR_DATE ( 2021, 1, 11 ) ;
#82 = PERSON_AND_ORGANIZATION_ROLE ( 'creator' ) ;
#83 = AXIS2_PLACEMENT_3D ( 'NONE', #102, #123, #199 ) ;
#84 = APPROVAL_ROLE ( '' ) ;
#85 = CC_DESIGN_APPROVAL ( #116, ( #223 ) ) ;
#86 = ORGANIZATION ( 'UNSPECIFIED', 'UNSPECIFIED', '' ) ;
#87 = PRODUCT_DEFINITION_SHAPE ( 'NONE', 'NONE',  #223 ) ;
#88 = DIRECTION ( 'NONE',  ( -3.491481338843133355E-15, 1.227517819005651059E-16, -1.000000000000000000 ) ) ;
#89 = ORIENTED_EDGE ( 'NONE', *, *, #147, .F. ) ;
#90 = CARTESIAN_POINT ( 'NONE',  ( 1.976178437785213353E-13, 2.999999999999987121, 56.59999999999999432 ) ) ;
#91 = VERTEX_POINT ( 'NONE', #90 ) ;
#92 = PERSON_AND_ORGANIZATION ( #4, #86 ) ;
#93 = CONICAL_SURFACE ( 'NONE', #83, 2.599999999999994760, 0.7853981633974418397 ) ;
#94 = COORDINATED_UNIVERSAL_TIME_OFFSET ( 1, 0, .AHEAD. ) ;
#95 = EDGE_CURVE ( 'NONE', #200, #200, #209, .T. ) ;
#96 = PERSON_AND_ORGANIZATION ( #4, #86 ) ;
#97 = APPROVAL_STATUS ( 'not_yet_approved' ) ;
#98 = PERSON_AND_ORGANIZATION_ROLE ( 'creator' ) ;
#99 = PERSON_AND_ORGANIZATION ( #4, #86 ) ;
#100 = LOCAL_TIME ( 13, 23, 42.00000000000000000, #94 ) ;
#101 = ADVANCED_BREP_SHAPE_REPRESENTATION ( '57690', ( #24, #19, #155 ), #49 ) ;
#102 = CARTESIAN_POINT ( 'NONE',  ( 1.990144363140586139E-13, -6.980486755139912911E-15, 57.00000000000000000 ) ) ;
#103 = CIRCLE ( 'NONE', #142, 2.749999999999999112 ) ;
#104 = CC_DESIGN_DATE_AND_TIME_ASSIGNMENT ( #182, #160, ( #36 ) ) ;
#105 = DIRECTION ( 'NONE',  ( 3.491481338843133355E-15, -1.227517819005651059E-16, 1.000000000000000000 ) ) ;
#106 = CARTESIAN_POINT ( 'NONE',  ( 3.491481338843133986E-14, 2.249639673992775738E-32, 10.00000000000000178 ) ) ;
#107 =( NAMED_UNIT ( * ) SI_UNIT ( $, .STERADIAN. ) SOLID_ANGLE_UNIT ( ) );
#108 = PRODUCT ( '57690', '57690', '', ( #16 ) ) ;
#109 = ORIENTED_EDGE ( 'NONE', *, *, #210, .T. ) ;
#110 = AXIS2_PLACEMENT_3D ( 'NONE', #146, #112, #190 ) ;
#111 = FACE_OUTER_BOUND ( 'NONE', #48, .T. ) ;
#112 = DIRECTION ( 'NONE',  ( 3.491481338843133355E-15, -1.224646799147353207E-16, 1.000000000000000000 ) ) ;
#113 = PERSON_AND_ORGANIZATION_ROLE ( 'design_owner' ) ;
#114 = CC_DESIGN_PERSON_AND_ORGANIZATION_ASSIGNMENT ( #26, #82, ( #223 ) ) ;
#115 = DATE_AND_TIME ( #64, #183 ) ;
#116 = APPROVAL ( #162, 'UNSPECIFIED' ) ;
#117 = CALENDAR_DATE ( 2021, 1, 11 ) ;
#118 = CC_DESIGN_PERSON_AND_ORGANIZATION_ASSIGNMENT ( #96, #44, ( #36 ) ) ;
#119 = PLANE ( 'NONE',  #120 ) ;
#120 = AXIS2_PLACEMENT_3D ( 'NONE', #212, #137, #188 ) ;
#121 = CARTESIAN_POINT ( 'NONE',  ( 3.491481338843133986E-14, -1.227517819005651157E-15, 10.00000000000000178 ) ) ;
#122 = CARTESIAN_POINT ( 'NONE',  ( 1.990144363140586139E-13, 2.599999999999987654, 57.00000000000000000 ) ) ;
#123 = DIRECTION ( 'NONE',  ( -3.491481338843133355E-15, 1.224646799147353207E-16, -1.000000000000000000 ) ) ;
#124 = APPROVAL_PERSON_ORGANIZATION ( #99, #159, #1 ) ;
#125 = DIRECTION ( 'NONE',  ( -3.491481338843133355E-15, 1.224646799147353207E-16, -1.000000000000000000 ) ) ;
#126 = ORIENTED_EDGE ( 'NONE', *, *, #67, .T. ) ;
#127 = COORDINATED_UNIVERSAL_TIME_OFFSET ( 1, 0, .AHEAD. ) ;
#128 = COORDINATED_UNIVERSAL_TIME_OFFSET ( 1, 0, .AHEAD. ) ;
#129 = DATE_AND_TIME ( #81, #100 ) ;
#130 = APPROVAL_PERSON_ORGANIZATION ( #92, #116, #27 ) ;
#131 = CC_DESIGN_APPROVAL ( #29, ( #36 ) ) ;
#132 = DIRECTION ( 'NONE',  ( 0.0000000000000000000, 1.000000000000000000, 0.0000000000000000000 ) ) ;
#133 = DIRECTION ( 'NONE',  ( -4.275831445896958607E-31, -1.000000000000000000, -1.224646799147353207E-16 ) ) ;
#134 = AXIS2_PLACEMENT_3D ( 'NONE', #17, #68, #132 ) ;
#135 = DIRECTION ( 'NONE',  ( -3.491481338843133355E-15, 1.224646799147353207E-16, -1.000000000000000000 ) ) ;
#136 = VERTEX_POINT ( 'NONE', #18 ) ;
#137 = DIRECTION ( 'NONE',  ( -3.491481338843133355E-15, 1.224646799147353207E-16, -1.000000000000000000 ) ) ;
#138 = PLANE ( 'NONE',  #110 ) ;
#139 = DIRECTION ( 'NONE',  ( -4.285855558155652404E-31, -1.000000000000000000, -1.227517819005651059E-16 ) ) ;
#140 = CC_DESIGN_DATE_AND_TIME_ASSIGNMENT ( #195, #158, ( #223 ) ) ;
#141 = COORDINATED_UNIVERSAL_TIME_OFFSET ( 1, 0, .AHEAD. ) ;
#142 = AXIS2_PLACEMENT_3D ( 'NONE', #214, #32, #139 ) ;
#143 = ADVANCED_FACE ( 'NONE', ( #77 ), #168, .F. ) ;
#144 = ORIENTED_EDGE ( 'NONE', *, *, #23, .F. ) ;
#145 = ORIENTED_EDGE ( 'NONE', *, *, #23, .T. ) ;
#146 = CARTESIAN_POINT ( 'NONE',  ( -2.137911398360250649E-30, 7.498783744695688887E-32, -6.123221609623798976E-16 ) ) ;
#147 = EDGE_CURVE ( 'NONE', #53, #53, #166, .T. ) ;
#148 = CIRCLE ( 'NONE', #62, 2.999999999999991562 ) ;
#149 = CARTESIAN_POINT ( 'NONE',  ( 1.990144363140586139E-13, -6.980486755139912911E-15, 57.00000000000000000 ) ) ;
#150 = FACE_OUTER_BOUND ( 'NONE', #9, .T. ) ;
#151 = ORIENTED_EDGE ( 'NONE', *, *, #210, .F. ) ;
#152 = FACE_OUTER_BOUND ( 'NONE', #59, .T. ) ;
#153 = DIRECTION ( 'NONE',  ( 0.0000000000000000000, -1.000000000000000000, 0.0000000000000000000 ) ) ;
#154 = CARTESIAN_POINT ( 'NONE',  ( 3.491481338843133986E-14, -2.749999999999998224, 10.00000000000000178 ) ) ;
#155 = AXIS2_PLACEMENT_3D ( 'NONE', #34, #175, #57 ) ;
#156 = CC_DESIGN_APPROVAL ( #159, ( #185 ) ) ;
#157 = CARTESIAN_POINT ( 'NONE',  ( 3.491481338843133986E-14, 2.249639673992775738E-32, 10.00000000000000178 ) ) ;
#158 = DATE_TIME_ROLE ( 'creation_date' ) ;
#159 = APPROVAL ( #97, 'UNSPECIFIED' ) ;
#160 = DATE_TIME_ROLE ( 'classification_date' ) ;
#161 = AXIS2_PLACEMENT_3D ( 'NONE', #20, #105, #222 ) ;
#162 = APPROVAL_STATUS ( 'not_yet_approved' ) ;
#163 = SECURITY_CLASSIFICATION_LEVEL ( 'unclassified' ) ;
#164 = COORDINATED_UNIVERSAL_TIME_OFFSET ( 1, 0, .AHEAD. ) ;
#165 = ADVANCED_FACE ( 'NONE', ( #201, #54 ), #58, .T. ) ;
#166 = CIRCLE ( 'NONE', #173, 2.749999999999996891 ) ;
#167 = ADVANCED_FACE ( 'NONE', ( #39 ), #138, .F. ) ;
#168 = PLANE ( 'NONE',  #208 ) ;
#169 = EDGE_LOOP ( 'NONE', ( #89 ) ) ;
#170 = VERTEX_POINT ( 'NONE', #122 ) ;
#171 = DIRECTION ( 'NONE',  ( -4.275831445896958607E-31, -1.000000000000000000, -1.224646799147353207E-16 ) ) ;
#172 = UNCERTAINTY_MEASURE_WITH_UNIT (LENGTH_MEASURE( 1.000000000000000082E-05 ), #186, 'distance_accuracy_value', 'NONE');
#173 = AXIS2_PLACEMENT_3D ( 'NONE', #11, #216, #73 ) ;
#174 = ORIENTED_EDGE ( 'NONE', *, *, #67, .F. ) ;
#175 = DIRECTION ( 'NONE',  ( 0.0000000000000000000, 0.0000000000000000000, 1.000000000000000000 ) ) ;
#176 = DIRECTION ( 'NONE',  ( 0.0000000000000000000, 1.000000000000000000, 0.0000000000000000000 ) ) ;
#177 = ADVANCED_FACE ( 'NONE', ( #150, #111 ), #79, .F. ) ;
#178 = APPLICATION_PROTOCOL_DEFINITION ( 'international standard', 'config_control_design', 1994, #181 ) ;
#179 = AXIS2_PLACEMENT_3D ( 'NONE', #204, #125, #192 ) ;
#180 = PERSON_AND_ORGANIZATION ( #4, #86 ) ;
#181 = APPLICATION_CONTEXT ( 'configuration controlled 3d designs of mechanical parts and assemblies' ) ;
#182 = DATE_AND_TIME ( #117, #215 ) ;
#183 = LOCAL_TIME ( 13, 23, 42.00000000000000000, #128 ) ;
#184 = DIRECTION ( 'NONE',  ( 0.0000000000000000000, 1.000000000000000000, 0.0000000000000000000 ) ) ;
#185 = PRODUCT_DEFINITION_FORMATION_WITH_SPECIFIED_SOURCE ( 'ANY', '', #108, .NOT_KNOWN. ) ;
#186 =( LENGTH_UNIT ( ) NAMED_UNIT ( * ) SI_UNIT ( .MILLI., .METRE. ) );
#187 = ADVANCED_FACE ( 'NONE', ( #152, #220 ), #217, .T. ) ;
#188 = DIRECTION ( 'NONE',  ( 4.275831445896958607E-31, 1.000000000000000000, 1.224646799147353207E-16 ) ) ;
#189 = ORIENTED_EDGE ( 'NONE', *, *, #45, .T. ) ;
#190 = DIRECTION ( 'NONE',  ( -4.275831445896958607E-31, -1.000000000000000000, -1.224646799147353207E-16 ) ) ;
#191 = CIRCLE ( 'NONE', #134, 2.999999999999993783 ) ;
#192 = DIRECTION ( 'NONE',  ( 4.275831445896958607E-31, 1.000000000000000000, 1.224646799147353207E-16 ) ) ;
#193 = APPROVAL_DATE_TIME ( #22, #116 ) ;
#194 = SHAPE_DEFINITION_REPRESENTATION ( #87, #101 ) ;
#195 = DATE_AND_TIME ( #5, #198 ) ;
#196 = EDGE_LOOP ( 'NONE', ( #189 ) ) ;
#197 = DIRECTION ( 'NONE',  ( 3.491481338843133355E-15, -1.227517819005651059E-16, 1.000000000000000000 ) ) ;
#198 = LOCAL_TIME ( 13, 23, 42.00000000000000000, #141 ) ;
#199 = DIRECTION ( 'NONE',  ( 0.0000000000000000000, 1.000000000000000000, 0.0000000000000000000 ) ) ;
#200 = VERTEX_POINT ( 'NONE', #50 ) ;
#201 = FACE_OUTER_BOUND ( 'NONE', #196, .T. ) ;
#202 = CC_DESIGN_PERSON_AND_ORGANIZATION_ASSIGNMENT ( #206, #98, ( #185 ) ) ;
#203 = FACE_BOUND ( 'NONE', #8, .T. ) ;
#204 = CARTESIAN_POINT ( 'NONE',  ( 0.0000000000000000000, 0.0000000000000000000, 0.0000000000000000000 ) ) ;
#205 = APPROVAL_PERSON_ORGANIZATION ( #61, #29, #84 ) ;
#206 = PERSON_AND_ORGANIZATION ( #4, #86 ) ;
#207 = CALENDAR_DATE ( 2021, 1, 11 ) ;
#208 = AXIS2_PLACEMENT_3D ( 'NONE', #106, #7, #171 ) ;
#209 = CIRCLE ( 'NONE', #43, 2.749999999999996891 ) ;
#210 = EDGE_CURVE ( 'NONE', #55, #55, #103, .T. ) ;
#211 = ADVANCED_FACE ( 'NONE', ( #72 ), #60, .T. ) ;
#212 = CARTESIAN_POINT ( 'NONE',  ( 1.990144363140586139E-13, 1.949687717460400658E-32, 57.00000000000000000 ) ) ;
#213 = EDGE_LOOP ( 'NONE', ( #12 ) ) ;
#214 = CARTESIAN_POINT ( 'NONE',  ( -1.178610278492803951E-30, 1.888791723648338895E-32, -3.375674002265538069E-16 ) ) ;
#215 = LOCAL_TIME ( 13, 23, 42.00000000000000000, #164 ) ;
#216 = DIRECTION ( 'NONE',  ( 3.491481338843133355E-15, -1.227517819005651059E-16, 1.000000000000000000 ) ) ;
#217 = CYLINDRICAL_SURFACE ( 'NONE', #161, 2.749999999999998224 ) ;
#218 = DESIGN_CONTEXT ( 'detailed design', #181, 'design' ) ;
#219 = ORIENTED_EDGE ( 'NONE', *, *, #147, .T. ) ;
#220 = FACE_OUTER_BOUND ( 'NONE', #33, .T. ) ;
#221 = EDGE_LOOP ( 'NONE', ( #144 ) ) ;
#222 = DIRECTION ( 'NONE',  ( -4.285855558155653280E-31, -1.000000000000000000, -1.227517819005650812E-16 ) ) ;
#223 = PRODUCT_DEFINITION ( 'UNKNOWN', '', #185, #218 ) ;
ENDSEC;
END-ISO-10303-21;
