ISO-10303-21;
HEADER;
FILE_DESCRIPTION (( 'STEP AP203' ),
    '1' );
FILE_NAME ('57568.step',
    '2021-10-08T08:12:10',
    ( '' ),
    ( '' ),
    'SwSTEP 2.0',
    'SolidWorks 2019',
    '' );
FILE_SCHEMA (( 'CONFIG_CONTROL_DESIGN' ));
ENDSEC;

DATA;
#1 = APPROVAL_ROLE ( '' ) ;
#2 = APPROVAL_STATUS ( 'not_yet_approved' ) ;
#3 = DIRECTION ( 'NONE',  ( -3.491481338843133355E-15, 1.224646799147353207E-16, -1.000000000000000000 ) ) ;
#4 = AXIS2_PLACEMENT_3D ( 'NONE', #15, #85, #72 ) ;
#5 = APPROVAL_PERSON_ORGANIZATION ( #188, #180, #75 ) ;
#6 = VERTEX_POINT ( 'NONE', #77 ) ;
#7 = DIRECTION ( 'NONE',  ( -3.491481338843133355E-15, 1.224646799147353207E-16, -1.000000000000000000 ) ) ;
#8 = DIRECTION ( 'NONE',  ( 0.0000000000000000000, 1.000000000000000000, 0.0000000000000000000 ) ) ;
#9 = EDGE_LOOP ( 'NONE', ( #185 ) ) ;
#10 = APPROVAL ( #105, 'UNSPECIFIED' ) ;
#11 = AXIS2_PLACEMENT_3D ( 'NONE', #76, #3, #149 ) ;
#12 = SECURITY_CLASSIFICATION_LEVEL ( 'unclassified' ) ;
#13 = DATE_TIME_ROLE ( 'creation_date' ) ;
#14 = ORIENTED_EDGE ( 'NONE', *, *, #121, .F. ) ;
#15 = CARTESIAN_POINT ( 'NONE',  ( 1.745740669421566678E-14, 2.437109646825509376E-33, 5.000000000000000000 ) ) ;
#16 = CC_DESIGN_APPROVAL ( #10, ( #64 ) ) ;
#17 = CALENDAR_DATE ( 2021, 8, 10 ) ;
#18 = PERSON_AND_ORGANIZATION ( #198, #57 ) ;
#19 = APPROVAL_DATE_TIME ( #168, #10 ) ;
#20 = FACE_BOUND ( 'NONE', #221, .T. ) ;
#21 = APPLICATION_CONTEXT ( 'configuration controlled 3d designs of mechanical parts and assemblies' ) ;
#22 = DIRECTION ( 'NONE',  ( -3.491481338843133355E-15, 1.224646799147353207E-16, -1.000000000000000000 ) ) ;
#23 = CARTESIAN_POINT ( 'NONE',  ( 1.745740669421566678E-14, 0.3249999999999993450, 5.000000000000000000 ) ) ;
#24 = CIRCLE ( 'NONE', #217, 0.3249999999999999556 ) ;
#25 = FACE_OUTER_BOUND ( 'NONE', #118, .T. ) ;
#26 = CC_DESIGN_PERSON_AND_ORGANIZATION_ASSIGNMENT ( #50, #88, ( #64 ) ) ;
#27 = VERTEX_POINT ( 'NONE', #23 ) ;
#28 = EDGE_CURVE ( 'NONE', #112, #112, #61, .T. ) ;
#29 = LOCAL_TIME ( 10, 12, 10.00000000000000000, #132 ) ;
#30 = EDGE_LOOP ( 'NONE', ( #129 ) ) ;
#31 = CC_DESIGN_PERSON_AND_ORGANIZATION_ASSIGNMENT ( #156, #49, ( #40 ) ) ;
#32 = DIRECTION ( 'NONE',  ( 0.0000000000000000000, 0.0000000000000000000, 1.000000000000000000 ) ) ;
#33 = ORIENTED_EDGE ( 'NONE', *, *, #39, .F. ) ;
#34 = PERSON_AND_ORGANIZATION_ROLE ( 'design_owner' ) ;
#35 = DIRECTION ( 'NONE',  ( -3.491481338843133355E-15, 1.224646799147353207E-16, -1.000000000000000000 ) ) ;
#36 = CLOSED_SHELL ( 'NONE', ( #96, #182, #106, #128, #167 ) ) ;
#37 = CYLINDRICAL_SURFACE ( 'NONE', #123, 0.3249999999999996780 ) ;
#38 =( NAMED_UNIT ( * ) PLANE_ANGLE_UNIT ( ) SI_UNIT ( $, .RADIAN. ) );
#39 = EDGE_CURVE ( 'NONE', #92, #92, #153, .T. ) ;
#40 = PRODUCT_DEFINITION_FORMATION_WITH_SPECIFIED_SOURCE ( 'ANY', '', #108, .NOT_KNOWN. ) ;
#41 = CARTESIAN_POINT ( 'NONE',  ( 1.745740669421566678E-14, -6.123233995736766282E-16, 5.000000000000000000 ) ) ;
#42 = PLANE ( 'NONE',  #11 ) ;
#43 = DIRECTION ( 'NONE',  ( 4.275831445896958607E-31, 1.000000000000000000, 1.224646799147352961E-16 ) ) ;
#44 = FACE_OUTER_BOUND ( 'NONE', #30, .T. ) ;
#45 = ADVANCED_FACE ( 'NONE', ( #66 ), #97, .T. ) ;
#46 = APPLICATION_CONTEXT ( 'configuration controlled 3d designs of mechanical parts and assemblies' ) ;
#47 = EDGE_LOOP ( 'NONE', ( #114 ) ) ;
#48 = LOCAL_TIME ( 10, 12, 10.00000000000000000, #189 ) ;
#49 = PERSON_AND_ORGANIZATION_ROLE ( 'design_supplier' ) ;
#50 = PERSON_AND_ORGANIZATION ( #198, #57 ) ;
#51 = PRODUCT_DEFINITION_SHAPE ( 'NONE', 'NONE',  #64 ) ;
#52 = CARTESIAN_POINT ( 'NONE',  ( 1.043952920314096936E-13, -3.661693929450586610E-15, 29.90000000000000213 ) ) ;
#53 = DIRECTION ( 'NONE',  ( 0.0000000000000000000, 1.000000000000000000, 0.0000000000000000000 ) ) ;
#54 = AXIS2_PLACEMENT_3D ( 'NONE', #157, #95, #43 ) ;
#55 = COORDINATED_UNIVERSAL_TIME_OFFSET ( 1, 0, .AHEAD. ) ;
#56 = FACE_OUTER_BOUND ( 'NONE', #205, .T. ) ;
#57 = ORGANIZATION ( 'UNSPECIFIED', 'UNSPECIFIED', '' ) ;
#58 = DIRECTION ( 'NONE',  ( 3.491481338843133355E-15, -1.224646799147353207E-16, 1.000000000000000000 ) ) ;
#59 = VERTEX_POINT ( 'NONE', #148 ) ;
#60 = CARTESIAN_POINT ( 'NONE',  ( 1.047444401652940007E-13, -3.673940397442059178E-15, 30.00000000000000000 ) ) ;
#61 = CIRCLE ( 'NONE', #183, 0.3249999999999994560 ) ;
#62 = CC_DESIGN_PERSON_AND_ORGANIZATION_ASSIGNMENT ( #197, #34, ( #108 ) ) ;
#63 = AXIS2_PLACEMENT_3D ( 'NONE', #146, #190, #8 ) ;
#64 = PRODUCT_DEFINITION ( 'UNKNOWN', '', #40, #192 ) ;
#65 = DATE_TIME_ROLE ( 'classification_date' ) ;
#66 = FACE_OUTER_BOUND ( 'NONE', #155, .T. ) ;
#67 = APPROVAL_STATUS ( 'not_yet_approved' ) ;
#68 = EDGE_LOOP ( 'NONE', ( #14 ) ) ;
#69 = DIRECTION ( 'NONE',  ( 3.491481338843133355E-15, -1.224646799147353207E-16, 1.000000000000000000 ) ) ;
#70 = CC_DESIGN_APPROVAL ( #207, ( #40 ) ) ;
#71 = DIRECTION ( 'NONE',  ( -3.491481338843133355E-15, 1.224646799147353207E-16, -1.000000000000000000 ) ) ;
#72 = DIRECTION ( 'NONE',  ( -4.275831445896958607E-31, -1.000000000000000000, -1.224646799147353207E-16 ) ) ;
#73 = FACE_OUTER_BOUND ( 'NONE', #47, .T. ) ;
#74 = PERSON_AND_ORGANIZATION ( #198, #57 ) ;
#75 = APPROVAL_ROLE ( '' ) ;
#76 = CARTESIAN_POINT ( 'NONE',  ( 1.047444401652940007E-13, 2.999519565323651582E-33, 30.00000000000000000 ) ) ;
#77 = CARTESIAN_POINT ( 'NONE',  ( 1.047444401652940007E-13, 0.3999999999999951927, 30.00000000000000000 ) ) ;
#78 = VERTEX_POINT ( 'NONE', #214 ) ;
#79 = AXIS2_PLACEMENT_3D ( 'NONE', #52, #71, #53 ) ;
#80 = UNCERTAINTY_MEASURE_WITH_UNIT (LENGTH_MEASURE( 1.000000000000000082E-05 ), #163, 'distance_accuracy_value', 'NONE');
#81 = ORIENTED_EDGE ( 'NONE', *, *, #28, .T. ) ;
#82 = ADVANCED_FACE ( 'NONE', ( #99, #73 ), #37, .T. ) ;
#83 = AXIS2_PLACEMENT_3D ( 'NONE', #60, #91, #111 ) ;
#84 = CIRCLE ( 'NONE', #150, 0.3249999999999999556 ) ;
#85 = DIRECTION ( 'NONE',  ( 3.491481338843133355E-15, -1.224646799147353207E-16, 1.000000000000000000 ) ) ;
#86 = LOCAL_TIME ( 10, 12, 10.00000000000000000, #100 ) ;
#87 = PERSON_AND_ORGANIZATION_ROLE ( 'creator' ) ;
#88 = PERSON_AND_ORGANIZATION_ROLE ( 'creator' ) ;
#89 = DIRECTION ( 'NONE',  ( 4.275831445896958607E-31, 1.000000000000000000, 1.224646799147353207E-16 ) ) ;
#90 = AXIS2_PLACEMENT_3D ( 'NONE', #169, #69, #135 ) ;
#91 = DIRECTION ( 'NONE',  ( -3.491481338843133355E-15, 1.224646799147353207E-16, -1.000000000000000000 ) ) ;
#92 = VERTEX_POINT ( 'NONE', #158 ) ;
#93 = PRODUCT_RELATED_PRODUCT_CATEGORY ( 'detail', '', ( #108 ) ) ;
#94 = CARTESIAN_POINT ( 'NONE',  ( 6.551374995267889556E-16, 0.3249999999999994560, 0.1876388374866302666 ) ) ;
#95 = DIRECTION ( 'NONE',  ( -3.491481338843133355E-15, 1.224646799147353207E-16, -1.000000000000000000 ) ) ;
#96 = ADVANCED_FACE ( 'NONE', ( #222 ), #117, .F. ) ;
#97 = CONICAL_SURFACE ( 'NONE', #90, 0.3249999999999994560, 1.047197551196592746 ) ;
#98 = CALENDAR_DATE ( 2021, 8, 10 ) ;
#99 = FACE_OUTER_BOUND ( 'NONE', #199, .T. ) ;
#100 = COORDINATED_UNIVERSAL_TIME_OFFSET ( 1, 0, .AHEAD. ) ;
#101 = DIRECTION ( 'NONE',  ( 2.962969145211137101E-31, 1.000000000000000000, 8.340016711426971312E-17 ) ) ;
#102 = DATE_AND_TIME ( #220, #29 ) ;
#103 = APPROVAL_PERSON_ORGANIZATION ( #173, #207, #1 ) ;
#104 = ADVANCED_BREP_SHAPE_REPRESENTATION ( '57568', ( #147, #145, #133 ), #194 ) ;
#105 = APPROVAL_STATUS ( 'not_yet_approved' ) ;
#106 = ADVANCED_FACE ( 'NONE', ( #138, #193 ), #195, .T. ) ;
#107 = DIRECTION ( 'NONE',  ( -3.491481338843133355E-15, 1.224646799147353207E-16, -1.000000000000000000 ) ) ;
#108 = PRODUCT ( '57568', '57568', '', ( #166 ) ) ;
#109 = AXIS2_PLACEMENT_3D ( 'NONE', #191, #176, #142 ) ;
#110 = DIRECTION ( 'NONE',  ( -3.491481338843133355E-15, 1.224646799147353207E-16, -1.000000000000000000 ) ) ;
#111 = DIRECTION ( 'NONE',  ( 0.0000000000000000000, 1.000000000000000000, 0.0000000000000000000 ) ) ;
#112 = VERTEX_POINT ( 'NONE', #94 ) ;
#113 = LOCAL_TIME ( 10, 12, 10.00000000000000000, #55 ) ;
#114 = ORIENTED_EDGE ( 'NONE', *, *, #121, .T. ) ;
#115 = ORIENTED_EDGE ( 'NONE', *, *, #162, .T. ) ;
#116 = APPLICATION_PROTOCOL_DEFINITION ( 'international standard', 'config_control_design', 1994, #46 ) ;
#117 = PLANE ( 'NONE',  #4 ) ;
#118 = EDGE_LOOP ( 'NONE', ( #216 ) ) ;
#119 = CALENDAR_DATE ( 2021, 8, 10 ) ;
#120 = CARTESIAN_POINT ( 'NONE',  ( 0.0000000000000000000, 0.0000000000000000000, 0.0000000000000000000 ) ) ;
#121 = EDGE_CURVE ( 'NONE', #27, #27, #84, .T. ) ;
#122 = CARTESIAN_POINT ( 'NONE',  ( 1.745740669421566678E-14, 2.437109646825509376E-33, 5.000000000000000000 ) ) ;
#123 = AXIS2_PLACEMENT_3D ( 'NONE', #120, #107, #89 ) ;
#124 = SHAPE_DEFINITION_REPRESENTATION ( #51, #104 ) ;
#125 = DIRECTION ( 'NONE',  ( 0.0000000000000000000, 1.000000000000000000, 0.0000000000000000000 ) ) ;
#126 = FACE_BOUND ( 'NONE', #196, .T. ) ;
#127 = DIRECTION ( 'NONE',  ( -4.275831445896958607E-31, -1.000000000000000000, -1.224646799147353207E-16 ) ) ;
#128 = ADVANCED_FACE ( 'NONE', ( #56, #20 ), #211, .T. ) ;
#129 = ORIENTED_EDGE ( 'NONE', *, *, #162, .F. ) ;
#130 = CIRCLE ( 'NONE', #200, 0.3999999999999988565 ) ;
#131 = CC_DESIGN_APPROVAL ( #180, ( #212 ) ) ;
#132 = COORDINATED_UNIVERSAL_TIME_OFFSET ( 1, 0, .AHEAD. ) ;
#133 = AXIS2_PLACEMENT_3D ( 'NONE', #154, #32, #204 ) ;
#134 = ORIENTED_EDGE ( 'NONE', *, *, #218, .T. ) ;
#135 = DIRECTION ( 'NONE',  ( -2.962969145211137101E-31, -1.000000000000000000, -8.340016711426971312E-17 ) ) ;
#136 = APPROVAL_ROLE ( '' ) ;
#137 = ORIENTED_EDGE ( 'NONE', *, *, #179, .F. ) ;
#138 = FACE_OUTER_BOUND ( 'NONE', #151, .T. ) ;
#139 = APPROVAL_DATE_TIME ( #140, #207 ) ;
#140 = DATE_AND_TIME ( #17, #144 ) ;
#141 = ADVANCED_FACE ( 'NONE', ( #178 ), #161, .T. ) ;
#142 = DIRECTION ( 'NONE',  ( 0.0000000000000000000, -1.000000000000000000, 0.0000000000000000000 ) ) ;
#143 = DATE_AND_TIME ( #208, #48 ) ;
#144 = LOCAL_TIME ( 10, 12, 10.00000000000000000, #170 ) ;
#145 = MANIFOLD_SOLID_BREP ( 'Corps-Déplacer/Copier1[2]', #187 ) ;
#146 = CARTESIAN_POINT ( 'NONE',  ( 1.973772420050789628E-14, -6.923061708992063759E-16, 5.653108891324559515 ) ) ;
#147 = MANIFOLD_SOLID_BREP ( 'Corps-Déplacer/Copier1[1]', #36 ) ;
#148 = CARTESIAN_POINT ( 'NONE',  ( 1.745740669421566678E-14, 0.3249999999999993450, 5.000000000000000000 ) ) ;
#149 = DIRECTION ( 'NONE',  ( 4.275831445896958607E-31, 1.000000000000000000, 1.224646799147353207E-16 ) ) ;
#150 = AXIS2_PLACEMENT_3D ( 'NONE', #209, #110, #213 ) ;
#151 = EDGE_LOOP ( 'NONE', ( #137 ) ) ;
#152 = ORIENTED_EDGE ( 'NONE', *, *, #218, .F. ) ;
#153 = CIRCLE ( 'NONE', #79, 0.4999999999999989453 ) ;
#154 = CARTESIAN_POINT ( 'NONE',  ( 0.0000000000000000000, 0.0000000000000000000, 0.0000000000000000000 ) ) ;
#155 = EDGE_LOOP ( 'NONE', ( #81 ) ) ;
#156 = PERSON_AND_ORGANIZATION ( #198, #57 ) ;
#157 = CARTESIAN_POINT ( 'NONE',  ( 0.0000000000000000000, 0.0000000000000000000, 0.0000000000000000000 ) ) ;
#158 = CARTESIAN_POINT ( 'NONE',  ( 1.043952920314096936E-13, 0.4999999999999952260, 29.90000000000000213 ) ) ;
#159 = CIRCLE ( 'NONE', #63, 0.4999999999999970024 ) ;
#160 = CARTESIAN_POINT ( 'NONE',  ( 1.047444401652940007E-13, -3.673940397442059178E-15, 30.00000000000000000 ) ) ;
#161 = PLANE ( 'NONE',  #174 ) ;
#162 = EDGE_CURVE ( 'NONE', #6, #6, #130, .T. ) ;
#163 =( LENGTH_UNIT ( ) NAMED_UNIT ( * ) SI_UNIT ( .MILLI., .METRE. ) );
#164 = CC_DESIGN_DATE_AND_TIME_ASSIGNMENT ( #102, #13, ( #64 ) ) ;
#165 = ORIENTED_EDGE ( 'NONE', *, *, #28, .F. ) ;
#166 = MECHANICAL_CONTEXT ( 'NONE', #21, 'mechanical' ) ;
#167 = ADVANCED_FACE ( 'NONE', ( #44 ), #42, .F. ) ;
#168 = DATE_AND_TIME ( #98, #86 ) ;
#169 = CARTESIAN_POINT ( 'NONE',  ( 6.551374995267888569E-16, -2.297913017237321262E-17, 0.1876388374866302389 ) ) ;
#170 = COORDINATED_UNIVERSAL_TIME_OFFSET ( 1, 0, .AHEAD. ) ;
#171 = CC_DESIGN_SECURITY_CLASSIFICATION ( #212, ( #40 ) ) ;
#172 = CC_DESIGN_DATE_AND_TIME_ASSIGNMENT ( #219, #65, ( #212 ) ) ;
#173 = PERSON_AND_ORGANIZATION ( #198, #57 ) ;
#174 = AXIS2_PLACEMENT_3D ( 'NONE', #122, #58, #127 ) ;
#175 =( NAMED_UNIT ( * ) SI_UNIT ( $, .STERADIAN. ) SOLID_ANGLE_UNIT ( ) );
#176 = DIRECTION ( 'NONE',  ( 3.491481338843133355E-15, -1.224646799147353207E-16, 1.000000000000000000 ) ) ;
#177 = DIRECTION ( 'NONE',  ( 0.0000000000000000000, 1.000000000000000000, 0.0000000000000000000 ) ) ;
#178 = FACE_OUTER_BOUND ( 'NONE', #68, .T. ) ;
#179 = EDGE_CURVE ( 'NONE', #78, #78, #159, .T. ) ;
#180 = APPROVAL ( #2, 'UNSPECIFIED' ) ;
#181 = APPROVAL_PERSON_ORGANIZATION ( #184, #10, #136 ) ;
#182 = ADVANCED_FACE ( 'NONE', ( #126, #25 ), #186, .T. ) ;
#183 = AXIS2_PLACEMENT_3D ( 'NONE', #202, #35, #101 ) ;
#184 = PERSON_AND_ORGANIZATION ( #198, #57 ) ;
#185 = ORIENTED_EDGE ( 'NONE', *, *, #39, .T. ) ;
#186 = CONICAL_SURFACE ( 'NONE', #109, 0.4999999999999970024, 0.2617993877991428575 ) ;
#187 = CLOSED_SHELL ( 'NONE', ( #45, #82, #141 ) ) ;
#188 = PERSON_AND_ORGANIZATION ( #198, #57 ) ;
#189 = COORDINATED_UNIVERSAL_TIME_OFFSET ( 1, 0, .AHEAD. ) ;
#190 = DIRECTION ( 'NONE',  ( -3.491481338843133355E-15, 1.224646799147353207E-16, -1.000000000000000000 ) ) ;
#191 = CARTESIAN_POINT ( 'NONE',  ( 1.973772420050789628E-14, -6.923061708992063759E-16, 5.653108891324559515 ) ) ;
#192 = DESIGN_CONTEXT ( 'detailed design', #46, 'design' ) ;
#193 = FACE_OUTER_BOUND ( 'NONE', #9, .T. ) ;
#194 =( GEOMETRIC_REPRESENTATION_CONTEXT ( 3 ) GLOBAL_UNCERTAINTY_ASSIGNED_CONTEXT ( ( #80 ) ) GLOBAL_UNIT_ASSIGNED_CONTEXT ( ( #163, #38, #175 ) ) REPRESENTATION_CONTEXT ( 'NONE', 'WORKASPACE' ) );
#195 = CYLINDRICAL_SURFACE ( 'NONE', #54, 0.4999999999999979461 ) ;
#196 = EDGE_LOOP ( 'NONE', ( #152 ) ) ;
#197 = PERSON_AND_ORGANIZATION ( #198, #57 ) ;
#198 = PERSON ( 'UNSPECIFIED', 'UNSPECIFIED', 'UNSPECIFIED', ('UNSPECIFIED'), ('UNSPECIFIED'), ('UNSPECIFIED') ) ;
#199 = EDGE_LOOP ( 'NONE', ( #165 ) ) ;
#200 = AXIS2_PLACEMENT_3D ( 'NONE', #160, #22, #125 ) ;
#201 = APPLICATION_PROTOCOL_DEFINITION ( 'international standard', 'config_control_design', 1994, #21 ) ;
#202 = CARTESIAN_POINT ( 'NONE',  ( 6.551374995267888569E-16, -2.297913017237321262E-17, 0.1876388374866302389 ) ) ;
#203 = CC_DESIGN_PERSON_AND_ORGANIZATION_ASSIGNMENT ( #74, #206, ( #212 ) ) ;
#204 = DIRECTION ( 'NONE',  ( 1.000000000000000000, 0.0000000000000000000, 0.0000000000000000000 ) ) ;
#205 = EDGE_LOOP ( 'NONE', ( #33 ) ) ;
#206 = PERSON_AND_ORGANIZATION_ROLE ( 'classification_officer' ) ;
#207 = APPROVAL ( #67, 'UNSPECIFIED' ) ;
#208 = CALENDAR_DATE ( 2021, 8, 10 ) ;
#209 = CARTESIAN_POINT ( 'NONE',  ( 1.745740669421566678E-14, -6.123233995736766282E-16, 5.000000000000000000 ) ) ;
#210 = APPROVAL_DATE_TIME ( #143, #180 ) ;
#211 = CONICAL_SURFACE ( 'NONE', #83, 0.3999999999999988565, 0.7853981633974689291 ) ;
#212 = SECURITY_CLASSIFICATION ( '', '', #12 ) ;
#213 = DIRECTION ( 'NONE',  ( 0.0000000000000000000, 1.000000000000000000, 0.0000000000000000000 ) ) ;
#214 = CARTESIAN_POINT ( 'NONE',  ( 1.973772420050789628E-14, 0.4999999999999963363, 5.653108891324559515 ) ) ;
#215 = EDGE_LOOP ( 'NONE', ( #134 ) ) ;
#216 = ORIENTED_EDGE ( 'NONE', *, *, #179, .T. ) ;
#217 = AXIS2_PLACEMENT_3D ( 'NONE', #41, #7, #177 ) ;
#218 = EDGE_CURVE ( 'NONE', #59, #59, #24, .T. ) ;
#219 = DATE_AND_TIME ( #119, #113 ) ;
#220 = CALENDAR_DATE ( 2021, 8, 10 ) ;
#221 = EDGE_LOOP ( 'NONE', ( #115 ) ) ;
#222 = FACE_OUTER_BOUND ( 'NONE', #215, .T. ) ;
#223 = CC_DESIGN_PERSON_AND_ORGANIZATION_ASSIGNMENT ( #18, #87, ( #40 ) ) ;
ENDSEC;
END-ISO-10303-21;
