ISO-10303-21;
HEADER;
FILE_DESCRIPTION (( 'STEP AP203' ),
    '1' );
FILE_NAME ('57567.step',
    '2021-10-08T08:12:07',
    ( '' ),
    ( '' ),
    'SwSTEP 2.0',
    'SolidWorks 2019',
    '' );
FILE_SCHEMA (( 'CONFIG_CONTROL_DESIGN' ));
ENDSEC;

DATA;
#1 = ADVANCED_FACE ( 'NONE', ( #67 ), #208, .T. ) ;
#2 = ORIENTED_EDGE ( 'NONE', *, *, #7, .T. ) ;
#3 = ORIENTED_EDGE ( 'NONE', *, *, #7, .F. ) ;
#4 = EDGE_LOOP ( 'NONE', ( #132 ) ) ;
#5 = DIRECTION ( 'NONE',  ( 0.0000000000000000000, 1.000000000000000000, 0.0000000000000000000 ) ) ;
#6 =( LENGTH_UNIT ( ) NAMED_UNIT ( * ) SI_UNIT ( .MILLI., .METRE. ) );
#7 = EDGE_CURVE ( 'NONE', #57, #57, #164, .T. ) ;
#8 = FACE_BOUND ( 'NONE', #192, .T. ) ;
#9 = VERTEX_POINT ( 'NONE', #189 ) ;
#10 = PERSON_AND_ORGANIZATION ( #209, #12 ) ;
#11 = CALENDAR_DATE ( 2021, 8, 10 ) ;
#12 = ORGANIZATION ( 'UNSPECIFIED', 'UNSPECIFIED', '' ) ;
#13 = APPROVAL_ROLE ( '' ) ;
#14 = APPROVAL ( #170, 'UNSPECIFIED' ) ;
#15 = PERSON_AND_ORGANIZATION_ROLE ( 'creator' ) ;
#16 = AXIS2_PLACEMENT_3D ( 'NONE', #99, #160, #207 ) ;
#17 = LOCAL_TIME ( 10, 12, 7.000000000000000000, #167 ) ;
#18 = EDGE_LOOP ( 'NONE', ( #3 ) ) ;
#19 = CARTESIAN_POINT ( 'NONE',  ( 1.047444401652940007E-13, 2.999519565323651582E-33, 30.00000000000000000 ) ) ;
#20 = FACE_OUTER_BOUND ( 'NONE', #175, .T. ) ;
#21 = CARTESIAN_POINT ( 'NONE',  ( 1.571166602479410010E-14, 2.249639673992777859E-33, 4.500000000000000000 ) ) ;
#22 = CIRCLE ( 'NONE', #151, 0.2999999999999999334 ) ;
#23 = EDGE_CURVE ( 'NONE', #102, #102, #106, .T. ) ;
#24 = DIRECTION ( 'NONE',  ( 0.0000000000000000000, 1.000000000000000000, 0.0000000000000000000 ) ) ;
#25 = CARTESIAN_POINT ( 'NONE',  ( 1.043952920314096936E-13, -3.661693929450586610E-15, 29.90000000000000213 ) ) ;
#26 = CARTESIAN_POINT ( 'NONE',  ( 1.047444401652940007E-13, -3.673940397442059178E-15, 30.00000000000000000 ) ) ;
#27 = APPROVAL_PERSON_ORGANIZATION ( #179, #171, #13 ) ;
#28 = APPROVAL_STATUS ( 'not_yet_approved' ) ;
#29 = PERSON_AND_ORGANIZATION_ROLE ( 'classification_officer' ) ;
#30 = AXIS2_PLACEMENT_3D ( 'NONE', #25, #162, #161 ) ;
#31 = LOCAL_TIME ( 10, 12, 7.000000000000000000, #127 ) ;
#32 = COORDINATED_UNIVERSAL_TIME_OFFSET ( 1, 0, .AHEAD. ) ;
#33 = PRODUCT_DEFINITION ( 'UNKNOWN', '', #181, #216 ) ;
#34 = DIRECTION ( 'NONE',  ( -3.491481338843133355E-15, 1.224646799147353207E-16, -1.000000000000000000 ) ) ;
#35 = FACE_OUTER_BOUND ( 'NONE', #77, .T. ) ;
#36 = ORIENTED_EDGE ( 'NONE', *, *, #23, .T. ) ;
#37 = DIRECTION ( 'NONE',  ( -4.275831445896958607E-31, -1.000000000000000000, -1.224646799147353207E-16 ) ) ;
#38 = DIRECTION ( 'NONE',  ( 3.491481338843133355E-15, -1.224646799147353207E-16, 1.000000000000000000 ) ) ;
#39 = AXIS2_PLACEMENT_3D ( 'NONE', #91, #218, #187 ) ;
#40 = FACE_OUTER_BOUND ( 'NONE', #55, .T. ) ;
#41 = DIRECTION ( 'NONE',  ( 0.0000000000000000000, 1.000000000000000000, 0.0000000000000000000 ) ) ;
#42 = CC_DESIGN_APPROVAL ( #153, ( #181 ) ) ;
#43 = CALENDAR_DATE ( 2021, 8, 10 ) ;
#44 = CC_DESIGN_DATE_AND_TIME_ASSIGNMENT ( #223, #154, ( #33 ) ) ;
#45 = APPROVAL_DATE_TIME ( #221, #153 ) ;
#46 = ADVANCED_FACE ( 'NONE', ( #75, #40 ), #196, .T. ) ;
#47 = SECURITY_CLASSIFICATION_LEVEL ( 'unclassified' ) ;
#48 = LOCAL_TIME ( 10, 12, 7.000000000000000000, #109 ) ;
#49 = CC_DESIGN_PERSON_AND_ORGANIZATION_ASSIGNMENT ( #201, #15, ( #33 ) ) ;
#50 = AXIS2_PLACEMENT_3D ( 'NONE', #107, #103, #105 ) ;
#51 = CARTESIAN_POINT ( 'NONE',  ( 1.831774317484236464E-14, -6.424999411312004057E-16, 5.246410161513783699 ) ) ;
#52 = ORIENTED_EDGE ( 'NONE', *, *, #205, .T. ) ;
#53 = DIRECTION ( 'NONE',  ( -3.491481338843133355E-15, 1.224646799147353207E-16, -1.000000000000000000 ) ) ;
#54 = CARTESIAN_POINT ( 'NONE',  ( 0.0000000000000000000, 0.0000000000000000000, 0.0000000000000000000 ) ) ;
#55 = EDGE_LOOP ( 'NONE', ( #52 ) ) ;
#56 = DIRECTION ( 'NONE',  ( -3.491481338843133355E-15, 1.224646799147353207E-16, -1.000000000000000000 ) ) ;
#57 = VERTEX_POINT ( 'NONE', #194 ) ;
#58 = ADVANCED_BREP_SHAPE_REPRESENTATION ( '57567', ( #68, #65, #215 ), #204 ) ;
#59 = FACE_OUTER_BOUND ( 'NONE', #141, .T. ) ;
#60 = APPLICATION_CONTEXT ( 'configuration controlled 3d designs of mechanical parts and assemblies' ) ;
#61 = APPLICATION_CONTEXT ( 'configuration controlled 3d designs of mechanical parts and assemblies' ) ;
#62 = COORDINATED_UNIVERSAL_TIME_OFFSET ( 1, 0, .AHEAD. ) ;
#63 = AXIS2_PLACEMENT_3D ( 'NONE', #118, #121, #37 ) ;
#64 = APPROVAL_ROLE ( '' ) ;
#65 = MANIFOLD_SOLID_BREP ( 'Corps-Déplacer/Copier1[2]', #73 ) ;
#66 = ADVANCED_FACE ( 'NONE', ( #20 ), #146, .T. ) ;
#67 = FACE_OUTER_BOUND ( 'NONE', #84, .T. ) ;
#68 = MANIFOLD_SOLID_BREP ( 'Corps-Déplacer/Copier1[1]', #80 ) ;
#69 = DATE_AND_TIME ( #93, #48 ) ;
#70 = PERSON_AND_ORGANIZATION ( #209, #12 ) ;
#71 = AXIS2_PLACEMENT_3D ( 'NONE', #182, #34, #94 ) ;
#72 = CC_DESIGN_PERSON_AND_ORGANIZATION_ASSIGNMENT ( #70, #138, ( #181 ) ) ;
#73 = CLOSED_SHELL ( 'NONE', ( #1, #46, #66 ) ) ;
#74 = SECURITY_CLASSIFICATION ( '', '', #47 ) ;
#75 = FACE_OUTER_BOUND ( 'NONE', #18, .T. ) ;
#76 = CC_DESIGN_PERSON_AND_ORGANIZATION_ASSIGNMENT ( #137, #222, ( #197 ) ) ;
#77 = EDGE_LOOP ( 'NONE', ( #213 ) ) ;
#78 = DIRECTION ( 'NONE',  ( -3.491481338843133355E-15, 1.224646799147353207E-16, -1.000000000000000000 ) ) ;
#79 = ORIENTED_EDGE ( 'NONE', *, *, #95, .F. ) ;
#80 = CLOSED_SHELL ( 'NONE', ( #172, #113, #169, #92, #119 ) ) ;
#81 = FACE_OUTER_BOUND ( 'NONE', #114, .T. ) ;
#82 = DIRECTION ( 'NONE',  ( -3.491481338843133355E-15, 1.224646799147353207E-16, -1.000000000000000000 ) ) ;
#83 = VERTEX_POINT ( 'NONE', #149 ) ;
#84 = EDGE_LOOP ( 'NONE', ( #2 ) ) ;
#85 = FACE_OUTER_BOUND ( 'NONE', #174, .T. ) ;
#86 = DIRECTION ( 'NONE',  ( 4.275831445896958607E-31, 1.000000000000000000, 1.224646799147353207E-16 ) ) ;
#87 = DIRECTION ( 'NONE',  ( 1.000000000000000000, 0.0000000000000000000, 0.0000000000000000000 ) ) ;
#88 = UNCERTAINTY_MEASURE_WITH_UNIT (LENGTH_MEASURE( 1.000000000000000082E-05 ), #6, 'distance_accuracy_value', 'NONE');
#89 = CARTESIAN_POINT ( 'NONE',  ( 1.571166602479410010E-14, 0.2999999999999993783, 4.500000000000000000 ) ) ;
#90 = CALENDAR_DATE ( 2021, 8, 10 ) ;
#91 = CARTESIAN_POINT ( 'NONE',  ( 0.0000000000000000000, 0.0000000000000000000, 0.0000000000000000000 ) ) ;
#92 = ADVANCED_FACE ( 'NONE', ( #116, #143 ), #186, .T. ) ;
#93 = CALENDAR_DATE ( 2021, 8, 10 ) ;
#94 = DIRECTION ( 'NONE',  ( 3.209883240645399365E-31, 1.000000000000000000, 9.035018104045887951E-17 ) ) ;
#95 = EDGE_CURVE ( 'NONE', #83, #83, #190, .T. ) ;
#96 = CARTESIAN_POINT ( 'NONE',  ( 1.831774317484236464E-14, -6.424999411312004057E-16, 5.246410161513783699 ) ) ;
#97 = EDGE_LOOP ( 'NONE', ( #79 ) ) ;
#98 = FACE_OUTER_BOUND ( 'NONE', #4, .T. ) ;
#99 = CARTESIAN_POINT ( 'NONE',  ( 1.047444401652940007E-13, -3.673940397442059178E-15, 30.00000000000000000 ) ) ;
#100 = VERTEX_POINT ( 'NONE', #195 ) ;
#101 = DIRECTION ( 'NONE',  ( -3.491481338843133355E-15, 1.224646799147353207E-16, -1.000000000000000000 ) ) ;
#102 = VERTEX_POINT ( 'NONE', #177 ) ;
#103 = DIRECTION ( 'NONE',  ( 3.491481338843133355E-15, -1.224646799147353207E-16, 1.000000000000000000 ) ) ;
#104 = APPLICATION_PROTOCOL_DEFINITION ( 'international standard', 'config_control_design', 1994, #60 ) ;
#105 = DIRECTION ( 'NONE',  ( -3.209883240645399365E-31, -1.000000000000000000, -9.035018104045887951E-17 ) ) ;
#106 = CIRCLE ( 'NONE', #124, 0.4999999999999970024 ) ;
#107 = CARTESIAN_POINT ( 'NONE',  ( 6.047423072554972168E-16, -2.121150477449834229E-17, 0.1732050807568893680 ) ) ;
#108 = APPROVAL_DATE_TIME ( #203, #14 ) ;
#109 = COORDINATED_UNIVERSAL_TIME_OFFSET ( 1, 0, .AHEAD. ) ;
#110 = SHAPE_DEFINITION_REPRESENTATION ( #144, #58 ) ;
#111 = LOCAL_TIME ( 10, 12, 7.000000000000000000, #32 ) ;
#112 = CIRCLE ( 'NONE', #199, 0.2999999999999999334 ) ;
#113 = ADVANCED_FACE ( 'NONE', ( #8, #81 ), #183, .T. ) ;
#114 = EDGE_LOOP ( 'NONE', ( #36 ) ) ;
#115 = PLANE ( 'NONE',  #220 ) ;
#116 = FACE_OUTER_BOUND ( 'NONE', #97, .T. ) ;
#117 = CC_DESIGN_PERSON_AND_ORGANIZATION_ASSIGNMENT ( #135, #125, ( #181 ) ) ;
#118 = CARTESIAN_POINT ( 'NONE',  ( 1.571166602479410010E-14, 2.249639673992777859E-33, 4.500000000000000000 ) ) ;
#119 = ADVANCED_FACE ( 'NONE', ( #35 ), #115, .F. ) ;
#120 = DIRECTION ( 'NONE',  ( -4.275831445896958607E-31, -1.000000000000000000, -1.224646799147353207E-16 ) ) ;
#121 = DIRECTION ( 'NONE',  ( 3.491481338843133355E-15, -1.224646799147353207E-16, 1.000000000000000000 ) ) ;
#122 = PLANE ( 'NONE',  #134 ) ;
#123 =( NAMED_UNIT ( * ) SI_UNIT ( $, .STERADIAN. ) SOLID_ANGLE_UNIT ( ) );
#124 = AXIS2_PLACEMENT_3D ( 'NONE', #96, #78, #145 ) ;
#125 = PERSON_AND_ORGANIZATION_ROLE ( 'creator' ) ;
#126 = APPROVAL_STATUS ( 'not_yet_approved' ) ;
#127 = COORDINATED_UNIVERSAL_TIME_OFFSET ( 1, 0, .AHEAD. ) ;
#128 = APPROVAL_PERSON_ORGANIZATION ( #152, #14, #64 ) ;
#129 = CIRCLE ( 'NONE', #139, 0.3999999999999988565 ) ;
#130 = ORIENTED_EDGE ( 'NONE', *, *, #205, .F. ) ;
#131 = EDGE_LOOP ( 'NONE', ( #206 ) ) ;
#132 = ORIENTED_EDGE ( 'NONE', *, *, #95, .T. ) ;
#133 = CARTESIAN_POINT ( 'NONE',  ( 1.571166602479410010E-14, -5.510910596163088569E-16, 4.500000000000000000 ) ) ;
#134 = AXIS2_PLACEMENT_3D ( 'NONE', #21, #38, #120 ) ;
#135 = PERSON_AND_ORGANIZATION ( #209, #12 ) ;
#136 = CC_DESIGN_APPROVAL ( #14, ( #33 ) ) ;
#137 = PERSON_AND_ORGANIZATION ( #209, #12 ) ;
#138 = PERSON_AND_ORGANIZATION_ROLE ( 'design_supplier' ) ;
#139 = AXIS2_PLACEMENT_3D ( 'NONE', #26, #82, #41 ) ;
#140 = LOCAL_TIME ( 10, 12, 7.000000000000000000, #62 ) ;
#141 = EDGE_LOOP ( 'NONE', ( #158 ) ) ;
#142 = CARTESIAN_POINT ( 'NONE',  ( 0.0000000000000000000, 0.0000000000000000000, 0.0000000000000000000 ) ) ;
#143 = FACE_BOUND ( 'NONE', #131, .T. ) ;
#144 = PRODUCT_DEFINITION_SHAPE ( 'NONE', 'NONE',  #33 ) ;
#145 = DIRECTION ( 'NONE',  ( 0.0000000000000000000, 1.000000000000000000, 0.0000000000000000000 ) ) ;
#146 = PLANE ( 'NONE',  #63 ) ;
#147 = DIRECTION ( 'NONE',  ( 4.275831445896958607E-31, 1.000000000000000000, 1.224646799147352961E-16 ) ) ;
#148 = MECHANICAL_CONTEXT ( 'NONE', #60, 'mechanical' ) ;
#149 = CARTESIAN_POINT ( 'NONE',  ( 1.043952920314096936E-13, 0.4999999999999952260, 29.90000000000000213 ) ) ;
#150 = DATE_AND_TIME ( #90, #31 ) ;
#151 = AXIS2_PLACEMENT_3D ( 'NONE', #133, #211, #24 ) ;
#152 = PERSON_AND_ORGANIZATION ( #209, #12 ) ;
#153 = APPROVAL ( #126, 'UNSPECIFIED' ) ;
#154 = DATE_TIME_ROLE ( 'creation_date' ) ;
#155 = EDGE_CURVE ( 'NONE', #165, #165, #112, .T. ) ;
#156 = APPROVAL_ROLE ( '' ) ;
#157 = PRODUCT_RELATED_PRODUCT_CATEGORY ( 'detail', '', ( #197 ) ) ;
#158 = ORIENTED_EDGE ( 'NONE', *, *, #155, .T. ) ;
#159 = ORIENTED_EDGE ( 'NONE', *, *, #155, .F. ) ;
#160 = DIRECTION ( 'NONE',  ( -3.491481338843133355E-15, 1.224646799147353207E-16, -1.000000000000000000 ) ) ;
#161 = DIRECTION ( 'NONE',  ( 0.0000000000000000000, 1.000000000000000000, 0.0000000000000000000 ) ) ;
#162 = DIRECTION ( 'NONE',  ( -3.491481338843133355E-15, 1.224646799147353207E-16, -1.000000000000000000 ) ) ;
#163 = DIRECTION ( 'NONE',  ( 0.0000000000000000000, 0.0000000000000000000, 1.000000000000000000 ) ) ;
#164 = CIRCLE ( 'NONE', #71, 0.2999999999999994338 ) ;
#165 = VERTEX_POINT ( 'NONE', #89 ) ;
#166 = PERSON_AND_ORGANIZATION ( #209, #12 ) ;
#167 = COORDINATED_UNIVERSAL_TIME_OFFSET ( 1, 0, .AHEAD. ) ;
#168 = AXIS2_PLACEMENT_3D ( 'NONE', #142, #56, #147 ) ;
#169 = ADVANCED_FACE ( 'NONE', ( #85, #98 ), #214, .T. ) ;
#170 = APPROVAL_STATUS ( 'not_yet_approved' ) ;
#171 = APPROVAL ( #28, 'UNSPECIFIED' ) ;
#172 = ADVANCED_FACE ( 'NONE', ( #59 ), #122, .F. ) ;
#173 = CC_DESIGN_APPROVAL ( #171, ( #74 ) ) ;
#174 = EDGE_LOOP ( 'NONE', ( #185 ) ) ;
#175 = EDGE_LOOP ( 'NONE', ( #130 ) ) ;
#176 = CARTESIAN_POINT ( 'NONE',  ( 1.571166602479410010E-14, -5.510910596163088569E-16, 4.500000000000000000 ) ) ;
#177 = CARTESIAN_POINT ( 'NONE',  ( 1.831774317484236464E-14, 0.4999999999999963363, 5.246410161513783699 ) ) ;
#178 = APPROVAL_PERSON_ORGANIZATION ( #10, #153, #156 ) ;
#179 = PERSON_AND_ORGANIZATION ( #209, #12 ) ;
#180 = APPROVAL_DATE_TIME ( #69, #171 ) ;
#181 = PRODUCT_DEFINITION_FORMATION_WITH_SPECIFIED_SOURCE ( 'ANY', '', #197, .NOT_KNOWN. ) ;
#182 = CARTESIAN_POINT ( 'NONE',  ( 6.047423072554972168E-16, -2.121150477449834229E-17, 0.1732050807568893680 ) ) ;
#183 = CONICAL_SURFACE ( 'NONE', #198, 0.4999999999999970024, 0.2617993877991427465 ) ;
#184 = EDGE_CURVE ( 'NONE', #9, #9, #129, .T. ) ;
#185 = ORIENTED_EDGE ( 'NONE', *, *, #23, .F. ) ;
#186 = CONICAL_SURFACE ( 'NONE', #16, 0.3999999999999988565, 0.7853981633974689291 ) ;
#187 = DIRECTION ( 'NONE',  ( 4.275831445896957731E-31, 1.000000000000000000, 1.224646799147353207E-16 ) ) ;
#188 = DIRECTION ( 'NONE',  ( 3.491481338843133355E-15, -1.224646799147353207E-16, 1.000000000000000000 ) ) ;
#189 = CARTESIAN_POINT ( 'NONE',  ( 1.047444401652940007E-13, 0.3999999999999951927, 30.00000000000000000 ) ) ;
#190 = CIRCLE ( 'NONE', #30, 0.4999999999999989453 ) ;
#191 = CC_DESIGN_SECURITY_CLASSIFICATION ( #74, ( #181 ) ) ;
#192 = EDGE_LOOP ( 'NONE', ( #159 ) ) ;
#193 = CC_DESIGN_DATE_AND_TIME_ASSIGNMENT ( #150, #200, ( #74 ) ) ;
#194 = CARTESIAN_POINT ( 'NONE',  ( 6.047423072554973154E-16, 0.2999999999999994338, 0.1732050807568893958 ) ) ;
#195 = CARTESIAN_POINT ( 'NONE',  ( 1.571166602479410010E-14, 0.2999999999999993783, 4.500000000000000000 ) ) ;
#196 = CYLINDRICAL_SURFACE ( 'NONE', #39, 0.2999999999999997113 ) ;
#197 = PRODUCT ( '57567', '57567', '', ( #148 ) ) ;
#198 = AXIS2_PLACEMENT_3D ( 'NONE', #51, #188, #210 ) ;
#199 = AXIS2_PLACEMENT_3D ( 'NONE', #176, #101, #5 ) ;
#200 = DATE_TIME_ROLE ( 'classification_date' ) ;
#201 = PERSON_AND_ORGANIZATION ( #209, #12 ) ;
#202 = APPLICATION_PROTOCOL_DEFINITION ( 'international standard', 'config_control_design', 1994, #61 ) ;
#203 = DATE_AND_TIME ( #219, #111 ) ;
#204 =( GEOMETRIC_REPRESENTATION_CONTEXT ( 3 ) GLOBAL_UNCERTAINTY_ASSIGNED_CONTEXT ( ( #88 ) ) GLOBAL_UNIT_ASSIGNED_CONTEXT ( ( #6, #217, #123 ) ) REPRESENTATION_CONTEXT ( 'NONE', 'WORKASPACE' ) );
#205 = EDGE_CURVE ( 'NONE', #100, #100, #22, .T. ) ;
#206 = ORIENTED_EDGE ( 'NONE', *, *, #184, .T. ) ;
#207 = DIRECTION ( 'NONE',  ( 0.0000000000000000000, 1.000000000000000000, 0.0000000000000000000 ) ) ;
#208 = CONICAL_SURFACE ( 'NONE', #50, 0.2999999999999994338, 1.047197551196592746 ) ;
#209 = PERSON ( 'UNSPECIFIED', 'UNSPECIFIED', 'UNSPECIFIED', ('UNSPECIFIED'), ('UNSPECIFIED'), ('UNSPECIFIED') ) ;
#210 = DIRECTION ( 'NONE',  ( 0.0000000000000000000, -1.000000000000000000, 0.0000000000000000000 ) ) ;
#211 = DIRECTION ( 'NONE',  ( -3.491481338843133355E-15, 1.224646799147353207E-16, -1.000000000000000000 ) ) ;
#212 = CC_DESIGN_PERSON_AND_ORGANIZATION_ASSIGNMENT ( #166, #29, ( #74 ) ) ;
#213 = ORIENTED_EDGE ( 'NONE', *, *, #184, .F. ) ;
#214 = CYLINDRICAL_SURFACE ( 'NONE', #168, 0.4999999999999979461 ) ;
#215 = AXIS2_PLACEMENT_3D ( 'NONE', #54, #163, #87 ) ;
#216 = DESIGN_CONTEXT ( 'detailed design', #61, 'design' ) ;
#217 =( NAMED_UNIT ( * ) PLANE_ANGLE_UNIT ( ) SI_UNIT ( $, .RADIAN. ) );
#218 = DIRECTION ( 'NONE',  ( -3.491481338843133355E-15, 1.224646799147353207E-16, -1.000000000000000000 ) ) ;
#219 = CALENDAR_DATE ( 2021, 8, 10 ) ;
#220 = AXIS2_PLACEMENT_3D ( 'NONE', #19, #53, #86 ) ;
#221 = DATE_AND_TIME ( #43, #140 ) ;
#222 = PERSON_AND_ORGANIZATION_ROLE ( 'design_owner' ) ;
#223 = DATE_AND_TIME ( #11, #17 ) ;
ENDSEC;
END-ISO-10303-21;
