ISO-10303-21;
HEADER;
FILE_DESCRIPTION (( 'STEP AP203' ),
    '1' );
FILE_NAME ('57566.step',
    '2021-10-08T08:12:06',
    ( '' ),
    ( '' ),
    'SwSTEP 2.0',
    'SolidWorks 2019',
    '' );
FILE_SCHEMA (( 'CONFIG_CONTROL_DESIGN' ));
ENDSEC;

DATA;
#1 = DIRECTION ( 'NONE',  ( 3.491481338843133355E-15, -1.224646799147353207E-16, 1.000000000000000000 ) ) ;
#2 = SECURITY_CLASSIFICATION ( '', '', #210 ) ;
#3 = FACE_OUTER_BOUND ( 'NONE', #111, .T. ) ;
#4 = AXIS2_PLACEMENT_3D ( 'NONE', #59, #105, #87 ) ;
#5 = CC_DESIGN_PERSON_AND_ORGANIZATION_ASSIGNMENT ( #169, #143, ( #124 ) ) ;
#6 = DATE_TIME_ROLE ( 'classification_date' ) ;
#7 = CONICAL_SURFACE ( 'NONE', #68, 0.2749999999999995226, 1.047197551196592746 ) ;
#8 = EDGE_CURVE ( 'NONE', #222, #222, #208, .T. ) ;
#9 = EDGE_LOOP ( 'NONE', ( #165 ) ) ;
#10 = DATE_AND_TIME ( #50, #140 ) ;
#11 = EDGE_LOOP ( 'NONE', ( #45 ) ) ;
#12 = PRODUCT ( '57566', '57566', '', ( #220 ) ) ;
#13 = PERSON_AND_ORGANIZATION_ROLE ( 'creator' ) ;
#14 = APPLICATION_CONTEXT ( 'configuration controlled 3d designs of mechanical parts and assemblies' ) ;
#15 = CLOSED_SHELL ( 'NONE', ( #58, #198, #177 ) ) ;
#16 = CIRCLE ( 'NONE', #209, 0.2750000000000000777 ) ;
#17 = DIRECTION ( 'NONE',  ( 0.0000000000000000000, 0.0000000000000000000, 1.000000000000000000 ) ) ;
#18 = CC_DESIGN_PERSON_AND_ORGANIZATION_ASSIGNMENT ( #203, #13, ( #124 ) ) ;
#19 = CYLINDRICAL_SURFACE ( 'NONE', #214, 0.4999999999999979461 ) ;
#20 = UNCERTAINTY_MEASURE_WITH_UNIT (LENGTH_MEASURE( 1.000000000000000082E-05 ), #134, 'distance_accuracy_value', 'NONE');
#21 = DIRECTION ( 'NONE',  ( -3.491481338843133355E-15, 1.224646799147353207E-16, -1.000000000000000000 ) ) ;
#22 = AXIS2_PLACEMENT_3D ( 'NONE', #28, #17, #49 ) ;
#23 = ORIENTED_EDGE ( 'NONE', *, *, #205, .T. ) ;
#24 = ORIENTED_EDGE ( 'NONE', *, *, #78, .F. ) ;
#25 = APPROVAL_STATUS ( 'not_yet_approved' ) ;
#26 = CARTESIAN_POINT ( 'NONE',  ( 5.543471149842057738E-16, -1.944387937662348120E-17, 0.1587713240271486081 ) ) ;
#27 = APPROVAL ( #25, 'UNSPECIFIED' ) ;
#28 = CARTESIAN_POINT ( 'NONE',  ( 0.0000000000000000000, 0.0000000000000000000, 0.0000000000000000000 ) ) ;
#29 = APPROVAL_ROLE ( '' ) ;
#30 = AXIS2_PLACEMENT_3D ( 'NONE', #36, #155, #156 ) ;
#31 = DIRECTION ( 'NONE',  ( 3.491481338843133355E-15, -1.224646799147353207E-16, 1.000000000000000000 ) ) ;
#32 = CC_DESIGN_DATE_AND_TIME_ASSIGNMENT ( #188, #6, ( #2 ) ) ;
#33 = CIRCLE ( 'NONE', #56, 0.4999999999999970024 ) ;
#34 = FACE_OUTER_BOUND ( 'NONE', #67, .T. ) ;
#35 = CC_DESIGN_PERSON_AND_ORGANIZATION_ASSIGNMENT ( #180, #131, ( #2 ) ) ;
#36 = CARTESIAN_POINT ( 'NONE',  ( 1.047444401652940007E-13, 2.999519565323651582E-33, 30.00000000000000000 ) ) ;
#37 = PERSON_AND_ORGANIZATION ( #102, #69 ) ;
#38 = CALENDAR_DATE ( 2021, 8, 10 ) ;
#39 = DIRECTION ( 'NONE',  ( -3.501690807976798710E-31, -1.000000000000000000, -9.856383386231876083E-17 ) ) ;
#40 = APPROVAL_ROLE ( '' ) ;
#41 = DIRECTION ( 'NONE',  ( -3.491481338843133355E-15, 1.224646799147353207E-16, -1.000000000000000000 ) ) ;
#42 = COORDINATED_UNIVERSAL_TIME_OFFSET ( 1, 0, .AHEAD. ) ;
#43 = CARTESIAN_POINT ( 'NONE',  ( 1.571166602479410325E-14, 0.2749999999999995226, 4.500000000000000888 ) ) ;
#44 = CONICAL_SURFACE ( 'NONE', #204, 0.3999999999999988565, 0.7853981633974689291 ) ;
#45 = ORIENTED_EDGE ( 'NONE', *, *, #141, .T. ) ;
#46 = CALENDAR_DATE ( 2021, 8, 10 ) ;
#47 = CC_DESIGN_SECURITY_CLASSIFICATION ( #2, ( #124 ) ) ;
#48 = APPROVAL ( #128, 'UNSPECIFIED' ) ;
#49 = DIRECTION ( 'NONE',  ( 1.000000000000000000, 0.0000000000000000000, 0.0000000000000000000 ) ) ;
#50 = CALENDAR_DATE ( 2021, 8, 10 ) ;
#51 = APPLICATION_CONTEXT ( 'configuration controlled 3d designs of mechanical parts and assemblies' ) ;
#52 = FACE_OUTER_BOUND ( 'NONE', #62, .T. ) ;
#53 = PLANE ( 'NONE',  #30 ) ;
#54 = DIRECTION ( 'NONE',  ( -4.275831445896958607E-31, -1.000000000000000000, -1.224646799147353207E-16 ) ) ;
#55 = AXIS2_PLACEMENT_3D ( 'NONE', #81, #1, #150 ) ;
#56 = AXIS2_PLACEMENT_3D ( 'NONE', #99, #164, #202 ) ;
#57 = CARTESIAN_POINT ( 'NONE',  ( 1.571166602479410325E-14, -1.041590079118783227E-31, 4.500000000000000888 ) ) ;
#58 = ADVANCED_FACE ( 'NONE', ( #190 ), #7, .T. ) ;
#59 = CARTESIAN_POINT ( 'NONE',  ( 1.043952920314096936E-13, -3.661693929450586610E-15, 29.90000000000000213 ) ) ;
#60 = PERSON_AND_ORGANIZATION ( #102, #69 ) ;
#61 = LOCAL_TIME ( 10, 12, 6.000000000000000000, #42 ) ;
#62 = EDGE_LOOP ( 'NONE', ( #219 ) ) ;
#63 = COORDINATED_UNIVERSAL_TIME_OFFSET ( 1, 0, .AHEAD. ) ;
#64 = EDGE_LOOP ( 'NONE', ( #24 ) ) ;
#65 = COORDINATED_UNIVERSAL_TIME_OFFSET ( 1, 0, .AHEAD. ) ;
#66 = DATE_AND_TIME ( #192, #84 ) ;
#67 = EDGE_LOOP ( 'NONE', ( #170 ) ) ;
#68 = AXIS2_PLACEMENT_3D ( 'NONE', #26, #129, #39 ) ;
#69 = ORGANIZATION ( 'UNSPECIFIED', 'UNSPECIFIED', '' ) ;
#70 = FACE_OUTER_BOUND ( 'NONE', #94, .T. ) ;
#71 = AXIS2_PLACEMENT_3D ( 'NONE', #112, #96, #148 ) ;
#72 = ADVANCED_BREP_SHAPE_REPRESENTATION ( '57566', ( #159, #90, #22 ), #223 ) ;
#73 = PLANE ( 'NONE',  #117 ) ;
#74 = PRODUCT_RELATED_PRODUCT_CATEGORY ( 'detail', '', ( #12 ) ) ;
#75 = CIRCLE ( 'NONE', #122, 0.2750000000000000777 ) ;
#76 = CARTESIAN_POINT ( 'NONE',  ( 0.0000000000000000000, 0.0000000000000000000, 0.0000000000000000000 ) ) ;
#77 = APPROVAL_DATE_TIME ( #10, #93 ) ;
#78 = EDGE_CURVE ( 'NONE', #91, #91, #75, .T. ) ;
#79 = CARTESIAN_POINT ( 'NONE',  ( 1.571166602479410325E-14, -5.510910596163089556E-16, 4.500000000000000888 ) ) ;
#80 = VERTEX_POINT ( 'NONE', #179 ) ;
#81 = CARTESIAN_POINT ( 'NONE',  ( 1.864350281859839968E-14, -6.539260513205618123E-16, 5.339711431703006994 ) ) ;
#82 = EDGE_LOOP ( 'NONE', ( #171 ) ) ;
#83 = ORIENTED_EDGE ( 'NONE', *, *, #221, .T. ) ;
#84 = LOCAL_TIME ( 10, 12, 6.000000000000000000, #65 ) ;
#85 = ADVANCED_FACE ( 'NONE', ( #113, #183 ), #95, .T. ) ;
#86 = LOCAL_TIME ( 10, 12, 6.000000000000000000, #114 ) ;
#87 = DIRECTION ( 'NONE',  ( 0.0000000000000000000, 1.000000000000000000, 0.0000000000000000000 ) ) ;
#88 = FACE_OUTER_BOUND ( 'NONE', #121, .T. ) ;
#89 = DIRECTION ( 'NONE',  ( -3.491481338843133355E-15, 1.224646799147353207E-16, -1.000000000000000000 ) ) ;
#90 = MANIFOLD_SOLID_BREP ( 'Corps-Déplacer/Copier1[2]', #15 ) ;
#91 = VERTEX_POINT ( 'NONE', #133 ) ;
#92 = SHAPE_DEFINITION_REPRESENTATION ( #173, #72 ) ;
#93 = APPROVAL ( #147, 'UNSPECIFIED' ) ;
#94 = EDGE_LOOP ( 'NONE', ( #168 ) ) ;
#95 = CONICAL_SURFACE ( 'NONE', #55, 0.4999999999999970024, 0.2617993877991432461 ) ;
#96 = DIRECTION ( 'NONE',  ( -3.491481338843133355E-15, 1.224646799147353207E-16, -1.000000000000000000 ) ) ;
#97 = APPROVAL_PERSON_ORGANIZATION ( #37, #27, #40 ) ;
#98 = EDGE_LOOP ( 'NONE', ( #100 ) ) ;
#99 = CARTESIAN_POINT ( 'NONE',  ( 1.864350281859839968E-14, -6.539260513205618123E-16, 5.339711431703006994 ) ) ;
#100 = ORIENTED_EDGE ( 'NONE', *, *, #8, .T. ) ;
#101 =( NAMED_UNIT ( * ) PLANE_ANGLE_UNIT ( ) SI_UNIT ( $, .RADIAN. ) );
#102 = PERSON ( 'UNSPECIFIED', 'UNSPECIFIED', 'UNSPECIFIED', ('UNSPECIFIED'), ('UNSPECIFIED'), ('UNSPECIFIED') ) ;
#103 = DIRECTION ( 'NONE',  ( 0.0000000000000000000, 1.000000000000000000, 0.0000000000000000000 ) ) ;
#104 = CIRCLE ( 'NONE', #4, 0.4999999999999989453 ) ;
#105 = DIRECTION ( 'NONE',  ( -3.491481338843133355E-15, 1.224646799147353207E-16, -1.000000000000000000 ) ) ;
#106 = DIRECTION ( 'NONE',  ( -4.275831445896958607E-31, -1.000000000000000000, -1.224646799147353207E-16 ) ) ;
#107 = AXIS2_PLACEMENT_3D ( 'NONE', #76, #89, #127 ) ;
#108 = DIRECTION ( 'NONE',  ( -3.491481338843133355E-15, 1.224646799147353207E-16, -1.000000000000000000 ) ) ;
#109 = APPLICATION_PROTOCOL_DEFINITION ( 'international standard', 'config_control_design', 1994, #51 ) ;
#110 = DATE_AND_TIME ( #38, #61 ) ;
#111 = EDGE_LOOP ( 'NONE', ( #206 ) ) ;
#112 = CARTESIAN_POINT ( 'NONE',  ( 1.047444401652940007E-13, -3.673940397442059178E-15, 30.00000000000000000 ) ) ;
#113 = FACE_BOUND ( 'NONE', #64, .T. ) ;
#114 = COORDINATED_UNIVERSAL_TIME_OFFSET ( 1, 0, .AHEAD. ) ;
#115 = ADVANCED_FACE ( 'NONE', ( #70, #138 ), #44, .T. ) ;
#116 = CARTESIAN_POINT ( 'NONE',  ( 1.047444401652940007E-13, 0.3999999999999951927, 30.00000000000000000 ) ) ;
#117 = AXIS2_PLACEMENT_3D ( 'NONE', #57, #126, #54 ) ;
#118 = CARTESIAN_POINT ( 'NONE',  ( 5.543471149842057738E-16, -1.944387937662348120E-17, 0.1587713240271486081 ) ) ;
#119 = DATE_AND_TIME ( #130, #194 ) ;
#120 = CARTESIAN_POINT ( 'NONE',  ( 1.864350281859839968E-14, 0.4999999999999963363, 5.339711431703006994 ) ) ;
#121 = EDGE_LOOP ( 'NONE', ( #23 ) ) ;
#122 = AXIS2_PLACEMENT_3D ( 'NONE', #79, #41, #187 ) ;
#123 = ADVANCED_FACE ( 'NONE', ( #52 ), #215, .F. ) ;
#124 = PRODUCT_DEFINITION_FORMATION_WITH_SPECIFIED_SOURCE ( 'ANY', '', #12, .NOT_KNOWN. ) ;
#125 = APPROVAL_PERSON_ORGANIZATION ( #181, #93, #29 ) ;
#126 = DIRECTION ( 'NONE',  ( 3.491481338843133355E-15, -1.224646799147353207E-16, 1.000000000000000000 ) ) ;
#127 = DIRECTION ( 'NONE',  ( 4.275831445896958607E-31, 1.000000000000000000, 1.224646799147353207E-16 ) ) ;
#128 = APPROVAL_STATUS ( 'not_yet_approved' ) ;
#129 = DIRECTION ( 'NONE',  ( 3.491481338843133355E-15, -1.224646799147353207E-16, 1.000000000000000000 ) ) ;
#130 = CALENDAR_DATE ( 2021, 8, 10 ) ;
#131 = PERSON_AND_ORGANIZATION_ROLE ( 'classification_officer' ) ;
#132 = APPROVAL_DATE_TIME ( #66, #27 ) ;
#133 = CARTESIAN_POINT ( 'NONE',  ( 1.571166602479410325E-14, 0.2749999999999995226, 4.500000000000000888 ) ) ;
#134 =( LENGTH_UNIT ( ) NAMED_UNIT ( * ) SI_UNIT ( .MILLI., .METRE. ) );
#135 = DIRECTION ( 'NONE',  ( -3.491481338843133355E-15, 1.224646799147353207E-16, -1.000000000000000000 ) ) ;
#136 =( NAMED_UNIT ( * ) SI_UNIT ( $, .STERADIAN. ) SOLID_ANGLE_UNIT ( ) );
#137 = CARTESIAN_POINT ( 'NONE',  ( 1.047444401652940007E-13, -3.673940397442059178E-15, 30.00000000000000000 ) ) ;
#138 = FACE_BOUND ( 'NONE', #162, .T. ) ;
#139 = AXIS2_PLACEMENT_3D ( 'NONE', #213, #31, #106 ) ;
#140 = LOCAL_TIME ( 10, 12, 6.000000000000000000, #145 ) ;
#141 = EDGE_CURVE ( 'NONE', #80, #80, #104, .T. ) ;
#142 = PERSON_AND_ORGANIZATION_ROLE ( 'design_owner' ) ;
#143 = PERSON_AND_ORGANIZATION_ROLE ( 'design_supplier' ) ;
#144 = PERSON_AND_ORGANIZATION ( #102, #69 ) ;
#145 = COORDINATED_UNIVERSAL_TIME_OFFSET ( 1, 0, .AHEAD. ) ;
#146 = VERTEX_POINT ( 'NONE', #43 ) ;
#147 = APPROVAL_STATUS ( 'not_yet_approved' ) ;
#148 = DIRECTION ( 'NONE',  ( 0.0000000000000000000, 1.000000000000000000, 0.0000000000000000000 ) ) ;
#149 = ADVANCED_FACE ( 'NONE', ( #178, #175 ), #19, .T. ) ;
#150 = DIRECTION ( 'NONE',  ( 0.0000000000000000000, -1.000000000000000000, 0.0000000000000000000 ) ) ;
#151 = CLOSED_SHELL ( 'NONE', ( #123, #85, #149, #115, #167 ) ) ;
#152 = CC_DESIGN_APPROVAL ( #27, ( #124 ) ) ;
#153 = DIRECTION ( 'NONE',  ( 4.275831445896958607E-31, 1.000000000000000000, 1.224646799147352961E-16 ) ) ;
#154 = CC_DESIGN_PERSON_AND_ORGANIZATION_ASSIGNMENT ( #201, #142, ( #12 ) ) ;
#155 = DIRECTION ( 'NONE',  ( -3.491481338843133355E-15, 1.224646799147353207E-16, -1.000000000000000000 ) ) ;
#156 = DIRECTION ( 'NONE',  ( 4.275831445896958607E-31, 1.000000000000000000, 1.224646799147353207E-16 ) ) ;
#157 = CYLINDRICAL_SURFACE ( 'NONE', #107, 0.2749999999999998002 ) ;
#158 = CIRCLE ( 'NONE', #71, 0.3999999999999988565 ) ;
#159 = MANIFOLD_SOLID_BREP ( 'Corps-Déplacer/Copier1[1]', #151 ) ;
#160 = DIRECTION ( 'NONE',  ( 0.0000000000000000000, 1.000000000000000000, 0.0000000000000000000 ) ) ;
#161 = VERTEX_POINT ( 'NONE', #116 ) ;
#162 = EDGE_LOOP ( 'NONE', ( #216 ) ) ;
#163 = DATE_TIME_ROLE ( 'creation_date' ) ;
#164 = DIRECTION ( 'NONE',  ( -3.491481338843133355E-15, 1.224646799147353207E-16, -1.000000000000000000 ) ) ;
#165 = ORIENTED_EDGE ( 'NONE', *, *, #211, .F. ) ;
#166 = AXIS2_PLACEMENT_3D ( 'NONE', #118, #135, #200 ) ;
#167 = ADVANCED_FACE ( 'NONE', ( #212 ), #53, .F. ) ;
#168 = ORIENTED_EDGE ( 'NONE', *, *, #141, .F. ) ;
#169 = PERSON_AND_ORGANIZATION ( #102, #69 ) ;
#170 = ORIENTED_EDGE ( 'NONE', *, *, #8, .F. ) ;
#171 = ORIENTED_EDGE ( 'NONE', *, *, #221, .F. ) ;
#172 = PRODUCT_DEFINITION ( 'UNKNOWN', '', #124, #199 ) ;
#173 = PRODUCT_DEFINITION_SHAPE ( 'NONE', 'NONE',  #172 ) ;
#174 = APPLICATION_PROTOCOL_DEFINITION ( 'international standard', 'config_control_design', 1994, #14 ) ;
#175 = FACE_OUTER_BOUND ( 'NONE', #11, .T. ) ;
#176 = CARTESIAN_POINT ( 'NONE',  ( 0.0000000000000000000, 0.0000000000000000000, 0.0000000000000000000 ) ) ;
#177 = ADVANCED_FACE ( 'NONE', ( #3 ), #73, .T. ) ;
#178 = FACE_OUTER_BOUND ( 'NONE', #82, .T. ) ;
#179 = CARTESIAN_POINT ( 'NONE',  ( 1.043952920314096936E-13, 0.4999999999999952260, 29.90000000000000213 ) ) ;
#180 = PERSON_AND_ORGANIZATION ( #102, #69 ) ;
#181 = PERSON_AND_ORGANIZATION ( #102, #69 ) ;
#182 = CARTESIAN_POINT ( 'NONE',  ( 5.543471149842058724E-16, 0.2749999999999995226, 0.1587713240271486359 ) ) ;
#183 = FACE_OUTER_BOUND ( 'NONE', #207, .T. ) ;
#184 = APPROVAL_PERSON_ORGANIZATION ( #60, #48, #197 ) ;
#185 = APPROVAL_DATE_TIME ( #110, #48 ) ;
#186 = VERTEX_POINT ( 'NONE', #120 ) ;
#187 = DIRECTION ( 'NONE',  ( 0.0000000000000000000, 1.000000000000000000, 0.0000000000000000000 ) ) ;
#188 = DATE_AND_TIME ( #46, #86 ) ;
#189 = CC_DESIGN_PERSON_AND_ORGANIZATION_ASSIGNMENT ( #144, #218, ( #172 ) ) ;
#190 = FACE_OUTER_BOUND ( 'NONE', #98, .T. ) ;
#191 = CC_DESIGN_APPROVAL ( #93, ( #2 ) ) ;
#192 = CALENDAR_DATE ( 2021, 8, 10 ) ;
#193 = DIRECTION ( 'NONE',  ( -3.491481338843133355E-15, 1.224646799147353207E-16, -1.000000000000000000 ) ) ;
#194 = LOCAL_TIME ( 10, 12, 6.000000000000000000, #63 ) ;
#195 = CC_DESIGN_DATE_AND_TIME_ASSIGNMENT ( #119, #163, ( #172 ) ) ;
#196 = CARTESIAN_POINT ( 'NONE',  ( 1.571166602479410325E-14, -5.510910596163089556E-16, 4.500000000000000888 ) ) ;
#197 = APPROVAL_ROLE ( '' ) ;
#198 = ADVANCED_FACE ( 'NONE', ( #34, #88 ), #157, .T. ) ;
#199 = DESIGN_CONTEXT ( 'detailed design', #51, 'design' ) ;
#200 = DIRECTION ( 'NONE',  ( 3.501690807976798710E-31, 1.000000000000000000, 9.856383386231876083E-17 ) ) ;
#201 = PERSON_AND_ORGANIZATION ( #102, #69 ) ;
#202 = DIRECTION ( 'NONE',  ( 0.0000000000000000000, 1.000000000000000000, 0.0000000000000000000 ) ) ;
#203 = PERSON_AND_ORGANIZATION ( #102, #69 ) ;
#204 = AXIS2_PLACEMENT_3D ( 'NONE', #137, #193, #103 ) ;
#205 = EDGE_CURVE ( 'NONE', #146, #146, #16, .T. ) ;
#206 = ORIENTED_EDGE ( 'NONE', *, *, #205, .F. ) ;
#207 = EDGE_LOOP ( 'NONE', ( #83 ) ) ;
#208 = CIRCLE ( 'NONE', #166, 0.2749999999999995226 ) ;
#209 = AXIS2_PLACEMENT_3D ( 'NONE', #196, #108, #160 ) ;
#210 = SECURITY_CLASSIFICATION_LEVEL ( 'unclassified' ) ;
#211 = EDGE_CURVE ( 'NONE', #161, #161, #158, .T. ) ;
#212 = FACE_OUTER_BOUND ( 'NONE', #9, .T. ) ;
#213 = CARTESIAN_POINT ( 'NONE',  ( 1.571166602479410325E-14, -1.041590079118783227E-31, 4.500000000000000888 ) ) ;
#214 = AXIS2_PLACEMENT_3D ( 'NONE', #176, #21, #153 ) ;
#215 = PLANE ( 'NONE',  #139 ) ;
#216 = ORIENTED_EDGE ( 'NONE', *, *, #211, .T. ) ;
#217 = CC_DESIGN_APPROVAL ( #48, ( #172 ) ) ;
#218 = PERSON_AND_ORGANIZATION_ROLE ( 'creator' ) ;
#219 = ORIENTED_EDGE ( 'NONE', *, *, #78, .T. ) ;
#220 = MECHANICAL_CONTEXT ( 'NONE', #14, 'mechanical' ) ;
#221 = EDGE_CURVE ( 'NONE', #186, #186, #33, .T. ) ;
#222 = VERTEX_POINT ( 'NONE', #182 ) ;
#223 =( GEOMETRIC_REPRESENTATION_CONTEXT ( 3 ) GLOBAL_UNCERTAINTY_ASSIGNED_CONTEXT ( ( #20 ) ) GLOBAL_UNIT_ASSIGNED_CONTEXT ( ( #134, #101, #136 ) ) REPRESENTATION_CONTEXT ( 'NONE', 'WORKASPACE' ) );
ENDSEC;
END-ISO-10303-21;
