ISO-10303-21;
HEADER;
FILE_DESCRIPTION (( 'STEP AP203' ),
    '1' );
FILE_NAME ('57565.step',
    '2021-10-08T08:12:04',
    ( '' ),
    ( '' ),
    'SwSTEP 2.0',
    'SolidWorks 2019',
    '' );
FILE_SCHEMA (( 'CONFIG_CONTROL_DESIGN' ));
ENDSEC;

DATA;
#1 = FACE_OUTER_BOUND ( 'NONE', #123, .T. ) ;
#2 = CARTESIAN_POINT ( 'NONE',  ( 1.396592535537253342E-14, 0.2499999999999985012, 4.000000000000000000 ) ) ;
#3 = APPROVAL_STATUS ( 'not_yet_approved' ) ;
#4 = ADVANCED_FACE ( 'NONE', ( #150 ), #128, .T. ) ;
#5 = DATE_AND_TIME ( #213, #155 ) ;
#6 = FACE_BOUND ( 'NONE', #46, .T. ) ;
#7 = AXIS2_PLACEMENT_3D ( 'NONE', #105, #69, #143 ) ;
#8 = UNCERTAINTY_MEASURE_WITH_UNIT (LENGTH_MEASURE( 1.000000000000000082E-05 ), #199, 'distance_accuracy_value', 'NONE');
#9 = CC_DESIGN_APPROVAL ( #188, ( #164 ) ) ;
#10 = ORIENTED_EDGE ( 'NONE', *, *, #104, .T. ) ;
#11 = COORDINATED_UNIVERSAL_TIME_OFFSET ( 1, 0, .AHEAD. ) ;
#12 = AXIS2_PLACEMENT_3D ( 'NONE', #109, #74, #60 ) ;
#13 = CC_DESIGN_PERSON_AND_ORGANIZATION_ASSIGNMENT ( #37, #113, ( #88 ) ) ;
#14 = COORDINATED_UNIVERSAL_TIME_OFFSET ( 1, 0, .AHEAD. ) ;
#15 = SECURITY_CLASSIFICATION_LEVEL ( 'unclassified' ) ;
#16 = MANIFOLD_SOLID_BREP ( 'Corps-Déplacer/Copier1[1]', #159 ) ;
#17 = EDGE_CURVE ( 'NONE', #119, #119, #146, .T. ) ;
#18 = PERSON_AND_ORGANIZATION_ROLE ( 'classification_officer' ) ;
#19 = CONICAL_SURFACE ( 'NONE', #73, 0.3999999999999988565, 0.7853981633974689291 ) ;
#20 = ADVANCED_FACE ( 'NONE', ( #1 ), #141, .F. ) ;
#21 = CARTESIAN_POINT ( 'NONE',  ( 0.0000000000000000000, 0.0000000000000000000, 0.0000000000000000000 ) ) ;
#22 = CARTESIAN_POINT ( 'NONE',  ( 1.396592535537253342E-14, 1.874699728327306273E-33, 4.000000000000000000 ) ) ;
#23 = LOCAL_TIME ( 10, 12, 4.000000000000000000, #87 ) ;
#24 = APPLICATION_CONTEXT ( 'configuration controlled 3d designs of mechanical parts and assemblies' ) ;
#25 = ORIENTED_EDGE ( 'NONE', *, *, #63, .T. ) ;
#26 = ORIENTED_EDGE ( 'NONE', *, *, #95, .T. ) ;
#27 = PRODUCT_DEFINITION_FORMATION_WITH_SPECIFIED_SOURCE ( 'ANY', '', #88, .NOT_KNOWN. ) ;
#28 = APPROVAL_ROLE ( '' ) ;
#29 = PERSON_AND_ORGANIZATION ( #126, #132 ) ;
#30 = VERTEX_POINT ( 'NONE', #162 ) ;
#31 = DATE_AND_TIME ( #183, #118 ) ;
#32 = DIRECTION ( 'NONE',  ( 4.275831445896958607E-31, 1.000000000000000000, 1.224646799147353207E-16 ) ) ;
#33 = PRODUCT_RELATED_PRODUCT_CATEGORY ( 'detail', '', ( #88 ) ) ;
#34 = LOCAL_TIME ( 10, 12, 4.000000000000000000, #11 ) ;
#35 = PLANE ( 'NONE',  #222 ) ;
#36 = CYLINDRICAL_SURFACE ( 'NONE', #193, 0.2499999999999986955 ) ;
#37 = PERSON_AND_ORGANIZATION ( #126, #132 ) ;
#38 = AXIS2_PLACEMENT_3D ( 'NONE', #79, #152, #190 ) ;
#39 = EDGE_LOOP ( 'NONE', ( #10 ) ) ;
#40 = DIRECTION ( 'NONE',  ( 1.000000000000000000, 0.0000000000000000000, 0.0000000000000000000 ) ) ;
#41 = DIRECTION ( 'NONE',  ( 3.491481338843133355E-15, -1.224646799147353207E-16, 1.000000000000000000 ) ) ;
#42 = CIRCLE ( 'NONE', #64, 0.2499999999999989730 ) ;
#43 = EDGE_LOOP ( 'NONE', ( #153 ) ) ;
#44 = APPROVAL ( #134, 'UNSPECIFIED' ) ;
#45 =( NAMED_UNIT ( * ) PLANE_ANGLE_UNIT ( ) SI_UNIT ( $, .RADIAN. ) );
#46 = EDGE_LOOP ( 'NONE', ( #25 ) ) ;
#47 = APPROVAL_STATUS ( 'not_yet_approved' ) ;
#48 = PRODUCT_DEFINITION_SHAPE ( 'NONE', 'NONE',  #161 ) ;
#49 = CARTESIAN_POINT ( 'NONE',  ( 1.396592535537253342E-14, 0.2499999999999985012, 4.000000000000000000 ) ) ;
#50 = AXIS2_PLACEMENT_3D ( 'NONE', #65, #201, #158 ) ;
#51 = PERSON_AND_ORGANIZATION ( #126, #132 ) ;
#52 = PERSON_AND_ORGANIZATION_ROLE ( 'creator' ) ;
#53 = FACE_OUTER_BOUND ( 'NONE', #137, .T. ) ;
#54 = LOCAL_TIME ( 10, 12, 4.000000000000000000, #14 ) ;
#55 = ADVANCED_FACE ( 'NONE', ( #53, #57 ), #217, .T. ) ;
#56 = CARTESIAN_POINT ( 'NONE',  ( 1.043952920314096936E-13, -3.661693929450586610E-15, 29.90000000000000213 ) ) ;
#57 = FACE_OUTER_BOUND ( 'NONE', #83, .T. ) ;
#58 = AXIS2_PLACEMENT_3D ( 'NONE', #56, #111, #93 ) ;
#59 = DIRECTION ( 'NONE',  ( 0.0000000000000000000, 1.000000000000000000, 0.0000000000000000000 ) ) ;
#60 = DIRECTION ( 'NONE',  ( 0.0000000000000000000, 1.000000000000000000, 0.0000000000000000000 ) ) ;
#61 = EDGE_LOOP ( 'NONE', ( #120 ) ) ;
#62 = APPLICATION_PROTOCOL_DEFINITION ( 'international standard', 'config_control_design', 1994, #24 ) ;
#63 = EDGE_CURVE ( 'NONE', #99, #99, #206, .T. ) ;
#64 = AXIS2_PLACEMENT_3D ( 'NONE', #205, #167, #59 ) ;
#65 = CARTESIAN_POINT ( 'NONE',  ( 1.722352179293287119E-14, -6.041198215525557434E-16, 4.933012701892231178 ) ) ;
#66 = PERSON_AND_ORGANIZATION_ROLE ( 'design_supplier' ) ;
#67 =( GEOMETRIC_REPRESENTATION_CONTEXT ( 3 ) GLOBAL_UNCERTAINTY_ASSIGNED_CONTEXT ( ( #8 ) ) GLOBAL_UNIT_ASSIGNED_CONTEXT ( ( #199, #45, #181 ) ) REPRESENTATION_CONTEXT ( 'NONE', 'WORKASPACE' ) );
#68 = DATE_TIME_ROLE ( 'classification_date' ) ;
#69 = DIRECTION ( 'NONE',  ( -3.491481338843133355E-15, 1.224646799147353207E-16, -1.000000000000000000 ) ) ;
#70 = DATE_TIME_ROLE ( 'creation_date' ) ;
#71 = DATE_AND_TIME ( #142, #23 ) ;
#72 = FACE_OUTER_BOUND ( 'NONE', #117, .T. ) ;
#73 = AXIS2_PLACEMENT_3D ( 'NONE', #130, #170, #214 ) ;
#74 = DIRECTION ( 'NONE',  ( -3.491481338843133355E-15, 1.224646799147353207E-16, -1.000000000000000000 ) ) ;
#75 = APPLICATION_PROTOCOL_DEFINITION ( 'international standard', 'config_control_design', 1994, #151 ) ;
#76 = ORIENTED_EDGE ( 'NONE', *, *, #17, .F. ) ;
#77 = ADVANCED_FACE ( 'NONE', ( #110, #215 ), #36, .T. ) ;
#78 = EDGE_LOOP ( 'NONE', ( #26 ) ) ;
#79 = CARTESIAN_POINT ( 'NONE',  ( 1.396592535537253342E-14, -4.898587196589412829E-16, 4.000000000000000000 ) ) ;
#80 = ORIENTED_EDGE ( 'NONE', *, *, #63, .F. ) ;
#81 = CC_DESIGN_DATE_AND_TIME_ASSIGNMENT ( #71, #68, ( #164 ) ) ;
#82 = DATE_AND_TIME ( #154, #34 ) ;
#83 = EDGE_LOOP ( 'NONE', ( #172 ) ) ;
#84 = APPROVAL_DATE_TIME ( #211, #188 ) ;
#85 = ADVANCED_BREP_SHAPE_REPRESENTATION ( '57565', ( #16, #176, #216 ), #67 ) ;
#86 = PERSON_AND_ORGANIZATION ( #126, #132 ) ;
#87 = COORDINATED_UNIVERSAL_TIME_OFFSET ( 1, 0, .AHEAD. ) ;
#88 = PRODUCT ( '57565', '57565', '', ( #149 ) ) ;
#89 = APPROVAL_PERSON_ORGANIZATION ( #145, #188, #180 ) ;
#90 = CARTESIAN_POINT ( 'NONE',  ( 5.039519227129122601E-16, -1.767625397874854616E-17, 0.1443375672974072377 ) ) ;
#91 = DIRECTION ( 'NONE',  ( 3.491481338843133355E-15, -1.224646799147353207E-16, 1.000000000000000000 ) ) ;
#92 = CIRCLE ( 'NONE', #58, 0.4999999999999989453 ) ;
#93 = DIRECTION ( 'NONE',  ( 0.0000000000000000000, 1.000000000000000000, 0.0000000000000000000 ) ) ;
#94 = CARTESIAN_POINT ( 'NONE',  ( 1.396592535537253342E-14, 1.874699728327306273E-33, 4.000000000000000000 ) ) ;
#95 = EDGE_CURVE ( 'NONE', #138, #138, #174, .T. ) ;
#96 = ORIENTED_EDGE ( 'NONE', *, *, #95, .F. ) ;
#97 = CIRCLE ( 'NONE', #38, 0.2499999999999989730 ) ;
#98 = DIRECTION ( 'NONE',  ( 0.0000000000000000000, -1.000000000000000000, 0.0000000000000000000 ) ) ;
#99 = VERTEX_POINT ( 'NONE', #136 ) ;
#100 = ORIENTED_EDGE ( 'NONE', *, *, #124, .F. ) ;
#101 = VERTEX_POINT ( 'NONE', #2 ) ;
#102 = CC_DESIGN_APPROVAL ( #44, ( #161 ) ) ;
#103 = COORDINATED_UNIVERSAL_TIME_OFFSET ( 1, 0, .AHEAD. ) ;
#104 = EDGE_CURVE ( 'NONE', #101, #101, #42, .T. ) ;
#105 = CARTESIAN_POINT ( 'NONE',  ( 1.047444401652940007E-13, 2.999519565323651582E-33, 30.00000000000000000 ) ) ;
#106 = APPROVAL_PERSON_ORGANIZATION ( #114, #44, #223 ) ;
#107 = COORDINATED_UNIVERSAL_TIME_OFFSET ( 1, 0, .AHEAD. ) ;
#108 = CARTESIAN_POINT ( 'NONE',  ( 5.039519227129123587E-16, 0.2499999999999985012, 0.1443375672974072654 ) ) ;
#109 = CARTESIAN_POINT ( 'NONE',  ( 1.047444401652940007E-13, -3.673940397442059178E-15, 30.00000000000000000 ) ) ;
#110 = FACE_OUTER_BOUND ( 'NONE', #157, .T. ) ;
#111 = DIRECTION ( 'NONE',  ( -3.491481338843133355E-15, 1.224646799147353207E-16, -1.000000000000000000 ) ) ;
#112 = AXIS2_PLACEMENT_3D ( 'NONE', #192, #156, #98 ) ;
#113 = PERSON_AND_ORGANIZATION_ROLE ( 'design_owner' ) ;
#114 = PERSON_AND_ORGANIZATION ( #126, #132 ) ;
#115 = CARTESIAN_POINT ( 'NONE',  ( 5.039519227129122601E-16, -1.767625397874854616E-17, 0.1443375672974072377 ) ) ;
#116 = FACE_BOUND ( 'NONE', #61, .T. ) ;
#117 = EDGE_LOOP ( 'NONE', ( #196 ) ) ;
#118 = LOCAL_TIME ( 10, 12, 4.000000000000000000, #107 ) ;
#119 = VERTEX_POINT ( 'NONE', #195 ) ;
#120 = ORIENTED_EDGE ( 'NONE', *, *, #210, .F. ) ;
#121 = FACE_OUTER_BOUND ( 'NONE', #43, .T. ) ;
#122 = EDGE_LOOP ( 'NONE', ( #135 ) ) ;
#123 = EDGE_LOOP ( 'NONE', ( #80 ) ) ;
#124 = EDGE_CURVE ( 'NONE', #30, #30, #92, .T. ) ;
#125 = APPROVAL_DATE_TIME ( #5, #207 ) ;
#126 = PERSON ( 'UNSPECIFIED', 'UNSPECIFIED', 'UNSPECIFIED', ('UNSPECIFIED'), ('UNSPECIFIED'), ('UNSPECIFIED') ) ;
#127 = CC_DESIGN_PERSON_AND_ORGANIZATION_ASSIGNMENT ( #144, #184, ( #27 ) ) ;
#128 = CONICAL_SURFACE ( 'NONE', #160, 0.2499999999999985012, 1.047197551196592746 ) ;
#129 = APPROVAL_PERSON_ORGANIZATION ( #86, #207, #28 ) ;
#130 = CARTESIAN_POINT ( 'NONE',  ( 1.047444401652940007E-13, -3.673940397442059178E-15, 30.00000000000000000 ) ) ;
#131 = DIRECTION ( 'NONE',  ( 3.851859888774494915E-31, 1.000000000000000000, 1.084202172485510967E-16 ) ) ;
#132 = ORGANIZATION ( 'UNSPECIFIED', 'UNSPECIFIED', '' ) ;
#133 = CARTESIAN_POINT ( 'NONE',  ( 0.0000000000000000000, 0.0000000000000000000, 0.0000000000000000000 ) ) ;
#134 = APPROVAL_STATUS ( 'not_yet_approved' ) ;
#135 = ORIENTED_EDGE ( 'NONE', *, *, #210, .T. ) ;
#136 = CARTESIAN_POINT ( 'NONE',  ( 1.047444401652940007E-13, 0.3999999999999951927, 30.00000000000000000 ) ) ;
#137 = EDGE_LOOP ( 'NONE', ( #76 ) ) ;
#138 = VERTEX_POINT ( 'NONE', #108 ) ;
#139 = ADVANCED_FACE ( 'NONE', ( #166, #6 ), #19, .T. ) ;
#140 = CALENDAR_DATE ( 2021, 8, 10 ) ;
#141 = PLANE ( 'NONE',  #7 ) ;
#142 = CALENDAR_DATE ( 2021, 8, 10 ) ;
#143 = DIRECTION ( 'NONE',  ( 4.275831445896958607E-31, 1.000000000000000000, 1.224646799147353207E-16 ) ) ;
#144 = PERSON_AND_ORGANIZATION ( #126, #132 ) ;
#145 = PERSON_AND_ORGANIZATION ( #126, #132 ) ;
#146 = CIRCLE ( 'NONE', #50, 0.4999999999999961142 ) ;
#147 = AXIS2_PLACEMENT_3D ( 'NONE', #90, #168, #131 ) ;
#148 = CC_DESIGN_PERSON_AND_ORGANIZATION_ASSIGNMENT ( #29, #52, ( #161 ) ) ;
#149 = MECHANICAL_CONTEXT ( 'NONE', #151, 'mechanical' ) ;
#150 = FACE_OUTER_BOUND ( 'NONE', #78, .T. ) ;
#151 = APPLICATION_CONTEXT ( 'configuration controlled 3d designs of mechanical parts and assemblies' ) ;
#152 = DIRECTION ( 'NONE',  ( -3.491481338843133355E-15, 1.224646799147353207E-16, -1.000000000000000000 ) ) ;
#153 = ORIENTED_EDGE ( 'NONE', *, *, #17, .T. ) ;
#154 = CALENDAR_DATE ( 2021, 8, 10 ) ;
#155 = LOCAL_TIME ( 10, 12, 4.000000000000000000, #103 ) ;
#156 = DIRECTION ( 'NONE',  ( 3.491481338843133355E-15, -1.224646799147353207E-16, 1.000000000000000000 ) ) ;
#157 = EDGE_LOOP ( 'NONE', ( #96 ) ) ;
#158 = DIRECTION ( 'NONE',  ( 0.0000000000000000000, 1.000000000000000000, 0.0000000000000000000 ) ) ;
#159 = CLOSED_SHELL ( 'NONE', ( #218, #186, #55, #139, #20 ) ) ;
#160 = AXIS2_PLACEMENT_3D ( 'NONE', #115, #175, #177 ) ;
#161 = PRODUCT_DEFINITION ( 'UNKNOWN', '', #27, #204 ) ;
#162 = CARTESIAN_POINT ( 'NONE',  ( 1.043952920314096936E-13, 0.4999999999999952260, 29.90000000000000213 ) ) ;
#163 = DIRECTION ( 'NONE',  ( -3.491481338843133355E-15, 1.224646799147353207E-16, -1.000000000000000000 ) ) ;
#164 = SECURITY_CLASSIFICATION ( '', '', #15 ) ;
#165 = CC_DESIGN_PERSON_AND_ORGANIZATION_ASSIGNMENT ( #51, #66, ( #27 ) ) ;
#166 = FACE_OUTER_BOUND ( 'NONE', #197, .T. ) ;
#167 = DIRECTION ( 'NONE',  ( -3.491481338843133355E-15, 1.224646799147353207E-16, -1.000000000000000000 ) ) ;
#168 = DIRECTION ( 'NONE',  ( -3.491481338843133355E-15, 1.224646799147353207E-16, -1.000000000000000000 ) ) ;
#169 = ADVANCED_FACE ( 'NONE', ( #72 ), #35, .T. ) ;
#170 = DIRECTION ( 'NONE',  ( -3.491481338843133355E-15, 1.224646799147353207E-16, -1.000000000000000000 ) ) ;
#171 = DIRECTION ( 'NONE',  ( -4.275831445896958607E-31, -1.000000000000000000, -1.224646799147353207E-16 ) ) ;
#172 = ORIENTED_EDGE ( 'NONE', *, *, #124, .T. ) ;
#173 = DIRECTION ( 'NONE',  ( -4.275831445896958607E-31, -1.000000000000000000, -1.224646799147353207E-16 ) ) ;
#174 = CIRCLE ( 'NONE', #147, 0.2499999999999985012 ) ;
#175 = DIRECTION ( 'NONE',  ( 3.491481338843133355E-15, -1.224646799147353207E-16, 1.000000000000000000 ) ) ;
#176 = MANIFOLD_SOLID_BREP ( 'Corps-Déplacer/Copier1[2]', #221 ) ;
#177 = DIRECTION ( 'NONE',  ( -3.851859888774494915E-31, -1.000000000000000000, -1.084202172485510967E-16 ) ) ;
#178 = APPROVAL_DATE_TIME ( #82, #44 ) ;
#179 = AXIS2_PLACEMENT_3D ( 'NONE', #21, #163, #32 ) ;
#180 = APPROVAL_ROLE ( '' ) ;
#181 =( NAMED_UNIT ( * ) SI_UNIT ( $, .STERADIAN. ) SOLID_ANGLE_UNIT ( ) );
#182 = VERTEX_POINT ( 'NONE', #49 ) ;
#183 = CALENDAR_DATE ( 2021, 8, 10 ) ;
#184 = PERSON_AND_ORGANIZATION_ROLE ( 'creator' ) ;
#185 = DIRECTION ( 'NONE',  ( 4.275831445896958607E-31, 1.000000000000000000, 1.224646799147353207E-16 ) ) ;
#186 = ADVANCED_FACE ( 'NONE', ( #116, #121 ), #198, .T. ) ;
#187 = CARTESIAN_POINT ( 'NONE',  ( 0.0000000000000000000, 0.0000000000000000000, 0.0000000000000000000 ) ) ;
#188 = APPROVAL ( #47, 'UNSPECIFIED' ) ;
#189 = DIRECTION ( 'NONE',  ( -3.491481338843133355E-15, 1.224646799147353207E-16, -1.000000000000000000 ) ) ;
#190 = DIRECTION ( 'NONE',  ( 0.0000000000000000000, 1.000000000000000000, 0.0000000000000000000 ) ) ;
#191 = CC_DESIGN_DATE_AND_TIME_ASSIGNMENT ( #31, #70, ( #161 ) ) ;
#192 = CARTESIAN_POINT ( 'NONE',  ( 1.722352179293287119E-14, -6.041198215525557434E-16, 4.933012701892231178 ) ) ;
#193 = AXIS2_PLACEMENT_3D ( 'NONE', #187, #189, #185 ) ;
#194 = DIRECTION ( 'NONE',  ( 0.0000000000000000000, 0.0000000000000000000, 1.000000000000000000 ) ) ;
#195 = CARTESIAN_POINT ( 'NONE',  ( 1.722352179293287119E-14, 0.4999999999999954481, 4.933012701892231178 ) ) ;
#196 = ORIENTED_EDGE ( 'NONE', *, *, #104, .F. ) ;
#197 = EDGE_LOOP ( 'NONE', ( #100 ) ) ;
#198 = CONICAL_SURFACE ( 'NONE', #112, 0.4999999999999961142, 0.2617993877991433571 ) ;
#199 =( LENGTH_UNIT ( ) NAMED_UNIT ( * ) SI_UNIT ( .MILLI., .METRE. ) );
#200 = PERSON_AND_ORGANIZATION ( #126, #132 ) ;
#201 = DIRECTION ( 'NONE',  ( -3.491481338843133355E-15, 1.224646799147353207E-16, -1.000000000000000000 ) ) ;
#202 = SHAPE_DEFINITION_REPRESENTATION ( #48, #85 ) ;
#203 = CC_DESIGN_APPROVAL ( #207, ( #27 ) ) ;
#204 = DESIGN_CONTEXT ( 'detailed design', #24, 'design' ) ;
#205 = CARTESIAN_POINT ( 'NONE',  ( 1.396592535537253342E-14, -4.898587196589412829E-16, 4.000000000000000000 ) ) ;
#206 = CIRCLE ( 'NONE', #12, 0.3999999999999988565 ) ;
#207 = APPROVAL ( #3, 'UNSPECIFIED' ) ;
#208 = FACE_OUTER_BOUND ( 'NONE', #122, .T. ) ;
#209 = AXIS2_PLACEMENT_3D ( 'NONE', #94, #41, #171 ) ;
#210 = EDGE_CURVE ( 'NONE', #182, #182, #97, .T. ) ;
#211 = DATE_AND_TIME ( #140, #54 ) ;
#212 = CC_DESIGN_PERSON_AND_ORGANIZATION_ASSIGNMENT ( #200, #18, ( #164 ) ) ;
#213 = CALENDAR_DATE ( 2021, 8, 10 ) ;
#214 = DIRECTION ( 'NONE',  ( 0.0000000000000000000, 1.000000000000000000, 0.0000000000000000000 ) ) ;
#215 = FACE_OUTER_BOUND ( 'NONE', #39, .T. ) ;
#216 = AXIS2_PLACEMENT_3D ( 'NONE', #133, #194, #40 ) ;
#217 = CYLINDRICAL_SURFACE ( 'NONE', #179, 0.4999999999999975020 ) ;
#218 = ADVANCED_FACE ( 'NONE', ( #208 ), #220, .F. ) ;
#219 = CC_DESIGN_SECURITY_CLASSIFICATION ( #164, ( #27 ) ) ;
#220 = PLANE ( 'NONE',  #209 ) ;
#221 = CLOSED_SHELL ( 'NONE', ( #4, #77, #169 ) ) ;
#222 = AXIS2_PLACEMENT_3D ( 'NONE', #22, #91, #173 ) ;
#223 = APPROVAL_ROLE ( '' ) ;
ENDSEC;
END-ISO-10303-21;
