ISO-10303-21;
HEADER;
FILE_DESCRIPTION (( 'STEP AP203' ),
    '1' );
FILE_NAME ('57560.step',
    '2021-10-06T11:20:56',
    ( '' ),
    ( '' ),
    'SwSTEP 2.0',
    'SolidWorks 2019',
    '' );
FILE_SCHEMA (( 'CONFIG_CONTROL_DESIGN' ));
ENDSEC;

DATA;
#1 = CARTESIAN_POINT ( 'NONE',  ( 0.0000000000000000000, 0.0000000000000000000, 0.0000000000000000000 ) ) ;
#2 = PERSON ( 'UNSPECIFIED', 'UNSPECIFIED', 'UNSPECIFIED', ('UNSPECIFIED'), ('UNSPECIFIED'), ('UNSPECIFIED') ) ;
#3 = AXIS2_PLACEMENT_3D ( 'NONE', #97, #197, #78 ) ;
#4 = AXIS2_PLACEMENT_3D ( 'NONE', #1, #82, #53 ) ;
#5 = AXIS2_PLACEMENT_3D ( 'NONE', #147, #162, #38 ) ;
#6 = DIRECTION ( 'NONE',  ( 0.0000000000000000000, 1.000000000000000000, 0.0000000000000000000 ) ) ;
#7 = VERTEX_POINT ( 'NONE', #201 ) ;
#8 = PRODUCT_DEFINITION ( 'UNKNOWN', '', #202, #94 ) ;
#9 = CARTESIAN_POINT ( 'NONE',  ( 4.538925740496073362E-14, 0.3249999999999953482, 13.00000000000000000 ) ) ;
#10 = CC_DESIGN_APPROVAL ( #100, ( #35 ) ) ;
#11 = PERSON_AND_ORGANIZATION_ROLE ( 'creator' ) ;
#12 = PERSON_AND_ORGANIZATION ( #2, #144 ) ;
#13 = CONICAL_SURFACE ( 'NONE', #134, 0.3249999999999953482, 1.134464013796309123 ) ;
#14 = COORDINATED_UNIVERSAL_TIME_OFFSET ( 1, 0, .AHEAD. ) ;
#15 = ORIENTED_EDGE ( 'NONE', *, *, #178, .T. ) ;
#16 = AXIS2_PLACEMENT_3D ( 'NONE', #193, #111, #36 ) ;
#17 = EDGE_LOOP ( 'NONE', ( #192 ) ) ;
#18 = DIRECTION ( 'NONE',  ( -3.491481338843133355E-15, 1.224646799147353207E-16, -1.000000000000000000 ) ) ;
#19 = CARTESIAN_POINT ( 'NONE',  ( 5.291339581475411666E-16, -1.855952088176604009E-17, 0.1515499889003743827 ) ) ;
#20 = ADVANCED_BREP_SHAPE_REPRESENTATION ( '57560', ( #128, #131, #112 ), #58 ) ;
#21 = EDGE_LOOP ( 'NONE', ( #129 ) ) ;
#22 = PRODUCT_DEFINITION_SHAPE ( 'NONE', 'NONE',  #8 ) ;
#23 = DIRECTION ( 'NONE',  ( -3.491481338843133355E-15, 1.224646799147353207E-16, -1.000000000000000000 ) ) ;
#24 = AXIS2_PLACEMENT_3D ( 'NONE', #71, #25, #44 ) ;
#25 = DIRECTION ( 'NONE',  ( 3.491481338843133355E-15, -1.224646799147353207E-16, 1.000000000000000000 ) ) ;
#26 =( NAMED_UNIT ( * ) SI_UNIT ( $, .STERADIAN. ) SOLID_ANGLE_UNIT ( ) );
#27 = APPLICATION_PROTOCOL_DEFINITION ( 'international standard', 'config_control_design', 1994, #70 ) ;
#28 = CARTESIAN_POINT ( 'NONE',  ( 5.291339581475412653E-16, 0.3249999999999953482, 0.1515499889003744105 ) ) ;
#29 = CC_DESIGN_PERSON_AND_ORGANIZATION_ASSIGNMENT ( #124, #90, ( #202 ) ) ;
#30 =( NAMED_UNIT ( * ) PLANE_ANGLE_UNIT ( ) SI_UNIT ( $, .RADIAN. ) );
#31 = EDGE_CURVE ( 'NONE', #152, #152, #149, .T. ) ;
#32 = CIRCLE ( 'NONE', #65, 0.3249999999999969025 ) ;
#33 = CC_DESIGN_DATE_AND_TIME_ASSIGNMENT ( #72, #59, ( #8 ) ) ;
#34 = PERSON_AND_ORGANIZATION ( #2, #144 ) ;
#35 = SECURITY_CLASSIFICATION ( '', '', #49 ) ;
#36 = DIRECTION ( 'NONE',  ( 0.0000000000000000000, 1.000000000000000000, 0.0000000000000000000 ) ) ;
#37 = ORIENTED_EDGE ( 'NONE', *, *, #155, .F. ) ;
#38 = DIRECTION ( 'NONE',  ( -4.275831445896958607E-31, -1.000000000000000000, -1.224646799147353207E-16 ) ) ;
#39 = ORIENTED_EDGE ( 'NONE', *, *, #31, .F. ) ;
#40 = DIRECTION ( 'NONE',  ( -2.962969145211174323E-31, -1.000000000000000000, -8.340016711427076083E-17 ) ) ;
#41 = PLANE ( 'NONE',  #24 ) ;
#42 = CIRCLE ( 'NONE', #16, 0.3250000000000000111 ) ;
#43 = FACE_OUTER_BOUND ( 'NONE', #81, .T. ) ;
#44 = DIRECTION ( 'NONE',  ( -4.275831445896958607E-31, -1.000000000000000000, -1.224646799147353207E-16 ) ) ;
#45 = APPROVAL_STATUS ( 'not_yet_approved' ) ;
#46 = CARTESIAN_POINT ( 'NONE',  ( 0.0000000000000000000, 0.0000000000000000000, 0.0000000000000000000 ) ) ;
#47 = CALENDAR_DATE ( 2021, 6, 10 ) ;
#48 = ADVANCED_FACE ( 'NONE', ( #52, #68 ), #176, .T. ) ;
#49 = SECURITY_CLASSIFICATION_LEVEL ( 'unclassified' ) ;
#50 = APPROVAL_DATE_TIME ( #89, #173 ) ;
#51 = EDGE_LOOP ( 'NONE', ( #195 ) ) ;
#52 = FACE_OUTER_BOUND ( 'NONE', #146, .T. ) ;
#53 = DIRECTION ( 'NONE',  ( 4.275831445896958607E-31, 1.000000000000000000, 1.224646799147353207E-16 ) ) ;
#54 = APPLICATION_CONTEXT ( 'configuration controlled 3d designs of mechanical parts and assemblies' ) ;
#55 = CARTESIAN_POINT ( 'NONE',  ( 5.291339581475411666E-16, -1.855952088176604009E-17, 0.1515499889003743827 ) ) ;
#56 = CARTESIAN_POINT ( 'NONE',  ( 1.323271427421547605E-13, 0.3249999999999953482, 37.89999999999999858 ) ) ;
#57 = CLOSED_SHELL ( 'NONE', ( #169, #48, #105, #80 ) ) ;
#58 =( GEOMETRIC_REPRESENTATION_CONTEXT ( 3 ) GLOBAL_UNCERTAINTY_ASSIGNED_CONTEXT ( ( #108 ) ) GLOBAL_UNIT_ASSIGNED_CONTEXT ( ( #150, #30, #26 ) ) REPRESENTATION_CONTEXT ( 'NONE', 'WORKASPACE' ) );
#59 = DATE_TIME_ROLE ( 'creation_date' ) ;
#60 = AXIS2_PLACEMENT_3D ( 'NONE', #136, #135, #115 ) ;
#61 = DATE_AND_TIME ( #47, #181 ) ;
#62 = PERSON_AND_ORGANIZATION_ROLE ( 'design_supplier' ) ;
#63 = CC_DESIGN_PERSON_AND_ORGANIZATION_ASSIGNMENT ( #34, #62, ( #202 ) ) ;
#64 = DIRECTION ( 'NONE',  ( 4.275831445896958607E-31, 1.000000000000000000, 1.224646799147353207E-16 ) ) ;
#65 = AXIS2_PLACEMENT_3D ( 'NONE', #69, #168, #6 ) ;
#66 = CC_DESIGN_PERSON_AND_ORGANIZATION_ASSIGNMENT ( #106, #11, ( #8 ) ) ;
#67 = EDGE_LOOP ( 'NONE', ( #37 ) ) ;
#68 = FACE_OUTER_BOUND ( 'NONE', #21, .T. ) ;
#69 = CARTESIAN_POINT ( 'NONE',  ( 4.538925740496073362E-14, -1.592040838891559095E-15, 13.00000000000000000 ) ) ;
#70 = APPLICATION_CONTEXT ( 'configuration controlled 3d designs of mechanical parts and assemblies' ) ;
#71 = CARTESIAN_POINT ( 'NONE',  ( 4.538925740496073362E-14, 2.437109646825471743E-33, 13.00000000000000000 ) ) ;
#72 = DATE_AND_TIME ( #121, #189 ) ;
#73 = CC_DESIGN_APPROVAL ( #118, ( #8 ) ) ;
#74 = SHAPE_DEFINITION_REPRESENTATION ( #22, #20 ) ;
#75 = COORDINATED_UNIVERSAL_TIME_OFFSET ( 1, 0, .AHEAD. ) ;
#76 = EDGE_LOOP ( 'NONE', ( #180 ) ) ;
#77 = CLOSED_SHELL ( 'NONE', ( #109, #196, #103 ) ) ;
#78 = DIRECTION ( 'NONE',  ( 0.0000000000000000000, 1.000000000000000000, 0.0000000000000000000 ) ) ;
#79 = DIRECTION ( 'NONE',  ( 0.0000000000000000000, 1.000000000000000000, 0.0000000000000000000 ) ) ;
#80 = ADVANCED_FACE ( 'NONE', ( #113 ), #142, .F. ) ;
#81 = EDGE_LOOP ( 'NONE', ( #203 ) ) ;
#82 = DIRECTION ( 'NONE',  ( -3.491481338843133355E-15, 1.224646799147353207E-16, -1.000000000000000000 ) ) ;
#83 = CC_DESIGN_PERSON_AND_ORGANIZATION_ASSIGNMENT ( #12, #153, ( #35 ) ) ;
#84 = DIRECTION ( 'NONE',  ( 2.962969145211174323E-31, 1.000000000000000000, 8.340016711427076083E-17 ) ) ;
#85 = CYLINDRICAL_SURFACE ( 'NONE', #60, 0.3249999999999960698 ) ;
#86 = APPROVAL_DATE_TIME ( #104, #118 ) ;
#87 = COORDINATED_UNIVERSAL_TIME_OFFSET ( 1, 0, .AHEAD. ) ;
#88 = CC_DESIGN_SECURITY_CLASSIFICATION ( #35, ( #202 ) ) ;
#89 = DATE_AND_TIME ( #92, #122 ) ;
#90 = PERSON_AND_ORGANIZATION_ROLE ( 'creator' ) ;
#91 = AXIS2_PLACEMENT_3D ( 'NONE', #179, #96, #64 ) ;
#92 = CALENDAR_DATE ( 2021, 6, 10 ) ;
#93 = COORDINATED_UNIVERSAL_TIME_OFFSET ( 1, 0, .AHEAD. ) ;
#94 = DESIGN_CONTEXT ( 'detailed design', #54, 'design' ) ;
#95 = APPROVAL_PERSON_ORGANIZATION ( #107, #173, #156 ) ;
#96 = DIRECTION ( 'NONE',  ( -3.491481338843133355E-15, 1.224646799147353207E-16, -1.000000000000000000 ) ) ;
#97 = CARTESIAN_POINT ( 'NONE',  ( 1.326762908760390423E-13, -4.653657836759941941E-15, 38.00000000000000000 ) ) ;
#98 = FACE_BOUND ( 'NONE', #76, .T. ) ;
#99 = ORIENTED_EDGE ( 'NONE', *, *, #137, .F. ) ;
#100 = APPROVAL ( #172, 'UNSPECIFIED' ) ;
#101 = CARTESIAN_POINT ( 'NONE',  ( 4.538925740496073362E-14, -1.592040838891559095E-15, 13.00000000000000000 ) ) ;
#102 = AXIS2_PLACEMENT_3D ( 'NONE', #19, #143, #84 ) ;
#103 = ADVANCED_FACE ( 'NONE', ( #114 ), #127, .T. ) ;
#104 = DATE_AND_TIME ( #186, #170 ) ;
#105 = ADVANCED_FACE ( 'NONE', ( #161, #98 ), #159, .T. ) ;
#106 = PERSON_AND_ORGANIZATION ( #2, #144 ) ;
#107 = PERSON_AND_ORGANIZATION ( #2, #144 ) ;
#108 = UNCERTAINTY_MEASURE_WITH_UNIT (LENGTH_MEASURE( 1.000000000000000082E-05 ), #150, 'distance_accuracy_value', 'NONE');
#109 = ADVANCED_FACE ( 'NONE', ( #199 ), #13, .T. ) ;
#110 = APPROVAL_DATE_TIME ( #61, #100 ) ;
#111 = DIRECTION ( 'NONE',  ( -3.491481338843133355E-15, 1.224646799147353207E-16, -1.000000000000000000 ) ) ;
#112 = AXIS2_PLACEMENT_3D ( 'NONE', #46, #138, #188 ) ;
#113 = FACE_OUTER_BOUND ( 'NONE', #141, .T. ) ;
#114 = FACE_OUTER_BOUND ( 'NONE', #51, .T. ) ;
#115 = DIRECTION ( 'NONE',  ( 4.275831445896958607E-31, 1.000000000000000000, 1.224646799147353454E-16 ) ) ;
#116 = APPROVAL_ROLE ( '' ) ;
#117 = CIRCLE ( 'NONE', #175, 0.3249999999999969025 ) ;
#118 = APPROVAL ( #45, 'UNSPECIFIED' ) ;
#119 = APPLICATION_PROTOCOL_DEFINITION ( 'international standard', 'config_control_design', 1994, #54 ) ;
#120 = PERSON_AND_ORGANIZATION ( #2, #144 ) ;
#121 = CALENDAR_DATE ( 2021, 6, 10 ) ;
#122 = LOCAL_TIME ( 13, 20, 56.00000000000000000, #14 ) ;
#123 = DATE_AND_TIME ( #190, #165 ) ;
#124 = PERSON_AND_ORGANIZATION ( #2, #144 ) ;
#125 = EDGE_CURVE ( 'NONE', #151, #151, #117, .T. ) ;
#126 = APPROVAL_ROLE ( '' ) ;
#127 = PLANE ( 'NONE',  #5 ) ;
#128 = MANIFOLD_SOLID_BREP ( 'Corps-Déplacer/Copier1[1]', #57 ) ;
#129 = ORIENTED_EDGE ( 'NONE', *, *, #155, .T. ) ;
#130 = CC_DESIGN_APPROVAL ( #173, ( #202 ) ) ;
#131 = MANIFOLD_SOLID_BREP ( 'Corps-Déplacer/Copier1[2]', #77 ) ;
#132 = ORIENTED_EDGE ( 'NONE', *, *, #178, .F. ) ;
#133 = CARTESIAN_POINT ( 'NONE',  ( 1.326762908760390423E-13, -4.653657836759941941E-15, 38.00000000000000000 ) ) ;
#134 = AXIS2_PLACEMENT_3D ( 'NONE', #55, #182, #40 ) ;
#135 = DIRECTION ( 'NONE',  ( -3.491481338843133355E-15, 1.224646799147353207E-16, -1.000000000000000000 ) ) ;
#136 = CARTESIAN_POINT ( 'NONE',  ( 0.0000000000000000000, 0.0000000000000000000, 0.0000000000000000000 ) ) ;
#137 = EDGE_CURVE ( 'NONE', #167, #167, #139, .T. ) ;
#138 = DIRECTION ( 'NONE',  ( 0.0000000000000000000, 0.0000000000000000000, 1.000000000000000000 ) ) ;
#139 = CIRCLE ( 'NONE', #102, 0.3249999999999953482 ) ;
#140 = CC_DESIGN_PERSON_AND_ORGANIZATION_ASSIGNMENT ( #183, #148, ( #174 ) ) ;
#141 = EDGE_LOOP ( 'NONE', ( #39 ) ) ;
#142 = PLANE ( 'NONE',  #91 ) ;
#143 = DIRECTION ( 'NONE',  ( -3.491481338843133355E-15, 1.224646799147353207E-16, -1.000000000000000000 ) ) ;
#144 = ORGANIZATION ( 'UNSPECIFIED', 'UNSPECIFIED', '' ) ;
#145 = APPROVAL_PERSON_ORGANIZATION ( #154, #100, #126 ) ;
#146 = EDGE_LOOP ( 'NONE', ( #132 ) ) ;
#147 = CARTESIAN_POINT ( 'NONE',  ( 4.538925740496073362E-14, 2.437109646825471743E-33, 13.00000000000000000 ) ) ;
#148 = PERSON_AND_ORGANIZATION_ROLE ( 'design_owner' ) ;
#149 = CIRCLE ( 'NONE', #3, 0.2250000000000000056 ) ;
#150 =( LENGTH_UNIT ( ) NAMED_UNIT ( * ) SI_UNIT ( .MILLI., .METRE. ) );
#151 = VERTEX_POINT ( 'NONE', #9 ) ;
#152 = VERTEX_POINT ( 'NONE', #200 ) ;
#153 = PERSON_AND_ORGANIZATION_ROLE ( 'classification_officer' ) ;
#154 = PERSON_AND_ORGANIZATION ( #2, #144 ) ;
#155 = EDGE_CURVE ( 'NONE', #164, #164, #42, .T. ) ;
#156 = APPROVAL_ROLE ( '' ) ;
#157 = EDGE_LOOP ( 'NONE', ( #99 ) ) ;
#158 = CC_DESIGN_DATE_AND_TIME_ASSIGNMENT ( #123, #171, ( #35 ) ) ;
#159 = CONICAL_SURFACE ( 'NONE', #194, 0.2250000000000000056, 0.7853981633974339571 ) ;
#160 = FACE_OUTER_BOUND ( 'NONE', #177, .T. ) ;
#161 = FACE_OUTER_BOUND ( 'NONE', #67, .T. ) ;
#162 = DIRECTION ( 'NONE',  ( 3.491481338843133355E-15, -1.224646799147353207E-16, 1.000000000000000000 ) ) ;
#163 = DIRECTION ( 'NONE',  ( 0.0000000000000000000, 1.000000000000000000, 0.0000000000000000000 ) ) ;
#164 = VERTEX_POINT ( 'NONE', #56 ) ;
#165 = LOCAL_TIME ( 13, 20, 56.00000000000000000, #75 ) ;
#166 = MECHANICAL_CONTEXT ( 'NONE', #70, 'mechanical' ) ;
#167 = VERTEX_POINT ( 'NONE', #28 ) ;
#168 = DIRECTION ( 'NONE',  ( -3.491481338843133355E-15, 1.224646799147353207E-16, -1.000000000000000000 ) ) ;
#169 = ADVANCED_FACE ( 'NONE', ( #160 ), #41, .F. ) ;
#170 = LOCAL_TIME ( 13, 20, 56.00000000000000000, #184 ) ;
#171 = DATE_TIME_ROLE ( 'classification_date' ) ;
#172 = APPROVAL_STATUS ( 'not_yet_approved' ) ;
#173 = APPROVAL ( #191, 'UNSPECIFIED' ) ;
#174 = PRODUCT ( '57560', '57560', '', ( #166 ) ) ;
#175 = AXIS2_PLACEMENT_3D ( 'NONE', #101, #23, #163 ) ;
#176 = CYLINDRICAL_SURFACE ( 'NONE', #4, 0.3249999999999984568 ) ;
#177 = EDGE_LOOP ( 'NONE', ( #15 ) ) ;
#178 = EDGE_CURVE ( 'NONE', #7, #7, #32, .T. ) ;
#179 = CARTESIAN_POINT ( 'NONE',  ( 1.326762908760390423E-13, 1.687229755494520018E-33, 38.00000000000000000 ) ) ;
#180 = ORIENTED_EDGE ( 'NONE', *, *, #31, .T. ) ;
#181 = LOCAL_TIME ( 13, 20, 56.00000000000000000, #93 ) ;
#182 = DIRECTION ( 'NONE',  ( 3.491481338843133355E-15, -1.224646799147353207E-16, 1.000000000000000000 ) ) ;
#183 = PERSON_AND_ORGANIZATION ( #2, #144 ) ;
#184 = COORDINATED_UNIVERSAL_TIME_OFFSET ( 1, 0, .AHEAD. ) ;
#185 = APPROVAL_PERSON_ORGANIZATION ( #120, #118, #116 ) ;
#186 = CALENDAR_DATE ( 2021, 6, 10 ) ;
#187 = FACE_OUTER_BOUND ( 'NONE', #157, .T. ) ;
#188 = DIRECTION ( 'NONE',  ( 1.000000000000000000, 0.0000000000000000000, 0.0000000000000000000 ) ) ;
#189 = LOCAL_TIME ( 13, 20, 56.00000000000000000, #87 ) ;
#190 = CALENDAR_DATE ( 2021, 6, 10 ) ;
#191 = APPROVAL_STATUS ( 'not_yet_approved' ) ;
#192 = ORIENTED_EDGE ( 'NONE', *, *, #137, .T. ) ;
#193 = CARTESIAN_POINT ( 'NONE',  ( 1.323271427421547605E-13, -4.641411368768468584E-15, 37.89999999999999858 ) ) ;
#194 = AXIS2_PLACEMENT_3D ( 'NONE', #133, #18, #79 ) ;
#195 = ORIENTED_EDGE ( 'NONE', *, *, #125, .F. ) ;
#196 = ADVANCED_FACE ( 'NONE', ( #187, #43 ), #85, .T. ) ;
#197 = DIRECTION ( 'NONE',  ( -3.491481338843133355E-15, 1.224646799147353207E-16, -1.000000000000000000 ) ) ;
#198 = PRODUCT_RELATED_PRODUCT_CATEGORY ( 'detail', '', ( #174 ) ) ;
#199 = FACE_OUTER_BOUND ( 'NONE', #17, .T. ) ;
#200 = CARTESIAN_POINT ( 'NONE',  ( 1.326762908760390423E-13, 0.2249999999999953426, 38.00000000000000000 ) ) ;
#201 = CARTESIAN_POINT ( 'NONE',  ( 4.538925740496073362E-14, 0.3249999999999953482, 13.00000000000000000 ) ) ;
#202 = PRODUCT_DEFINITION_FORMATION_WITH_SPECIFIED_SOURCE ( 'ANY', '', #174, .NOT_KNOWN. ) ;
#203 = ORIENTED_EDGE ( 'NONE', *, *, #125, .T. ) ;
ENDSEC;
END-ISO-10303-21;
