ISO-10303-21;
HEADER;
FILE_DESCRIPTION (( 'STEP AP203' ),
    '1' );
FILE_NAME ('57559.step',
    '2021-10-06T11:20:56',
    ( '' ),
    ( '' ),
    'SwSTEP 2.0',
    'SolidWorks 2019',
    '' );
FILE_SCHEMA (( 'CONFIG_CONTROL_DESIGN' ));
ENDSEC;

DATA;
#1 = DIRECTION ( 'NONE',  ( -3.491481338843133355E-15, 1.224646799147353207E-16, -1.000000000000000000 ) ) ;
#2 = FACE_OUTER_BOUND ( 'NONE', #70, .T. ) ;
#3 = CIRCLE ( 'NONE', #103, 0.2999999999999968803 ) ;
#4 = PRODUCT_DEFINITION_FORMATION_WITH_SPECIFIED_SOURCE ( 'ANY', '', #168, .NOT_KNOWN. ) ;
#5 = DIRECTION ( 'NONE',  ( 3.491481338843133355E-15, -1.224646799147353207E-16, 1.000000000000000000 ) ) ;
#6 = CALENDAR_DATE ( 2021, 6, 10 ) ;
#7 = APPLICATION_PROTOCOL_DEFINITION ( 'international standard', 'config_control_design', 1994, #145 ) ;
#8 = PERSON_AND_ORGANIZATION ( #108, #98 ) ;
#9 = CC_DESIGN_PERSON_AND_ORGANIZATION_ASSIGNMENT ( #94, #158, ( #109 ) ) ;
#10 = CLOSED_SHELL ( 'NONE', ( #114, #93, #179, #68 ) ) ;
#11 = ORIENTED_EDGE ( 'NONE', *, *, #13, .F. ) ;
#12 = EDGE_CURVE ( 'NONE', #90, #90, #51, .T. ) ;
#13 = EDGE_CURVE ( 'NONE', #154, #154, #72, .T. ) ;
#14 = ORIENTED_EDGE ( 'NONE', *, *, #12, .T. ) ;
#15 = DIRECTION ( 'NONE',  ( 0.0000000000000000000, 1.000000000000000000, 0.0000000000000000000 ) ) ;
#16 = AXIS2_PLACEMENT_3D ( 'NONE', #107, #150, #188 ) ;
#17 = APPROVAL_PERSON_ORGANIZATION ( #142, #44, #177 ) ;
#18 = CARTESIAN_POINT ( 'NONE',  ( 1.326762908760390423E-13, 1.499759782661787646E-33, 38.00000000000000000 ) ) ;
#19 = DIRECTION ( 'NONE',  ( -3.491481338843133355E-15, 1.224646799147353207E-16, -1.000000000000000000 ) ) ;
#20 = FACE_OUTER_BOUND ( 'NONE', #200, .T. ) ;
#21 = CYLINDRICAL_SURFACE ( 'NONE', #79, 0.2999999999999983791 ) ;
#22 = PRODUCT_DEFINITION_SHAPE ( 'NONE', 'NONE',  #101 ) ;
#23 = LOCAL_TIME ( 13, 20, 56.00000000000000000, #196 ) ;
#24 = APPROVAL_DATE_TIME ( #160, #44 ) ;
#25 = DATE_AND_TIME ( #181, #42 ) ;
#26 = DATE_AND_TIME ( #6, #164 ) ;
#27 = APPROVAL_STATUS ( 'not_yet_approved' ) ;
#28 =( NAMED_UNIT ( * ) SI_UNIT ( $, .STERADIAN. ) SOLID_ANGLE_UNIT ( ) );
#29 = ADVANCED_FACE ( 'NONE', ( #132 ), #141, .T. ) ;
#30 = CIRCLE ( 'NONE', #162, 0.2999999999999968803 ) ;
#31 = ORIENTED_EDGE ( 'NONE', *, *, #127, .F. ) ;
#32 = ORIENTED_EDGE ( 'NONE', *, *, #136, .T. ) ;
#33 = LOCAL_TIME ( 13, 20, 56.00000000000000000, #55 ) ;
#34 = VERTEX_POINT ( 'NONE', #87 ) ;
#35 = APPROVAL ( #146, 'UNSPECIFIED' ) ;
#36 = FACE_OUTER_BOUND ( 'NONE', #184, .T. ) ;
#37 = DIRECTION ( 'NONE',  ( -3.491481338843133355E-15, 1.224646799147353207E-16, -1.000000000000000000 ) ) ;
#38 = MANIFOLD_SOLID_BREP ( 'Corps-Déplacer/Copier1[2]', #178 ) ;
#39 = DIRECTION ( 'NONE',  ( -3.491481338843133355E-15, 1.224646799147353207E-16, -1.000000000000000000 ) ) ;
#40 = DIRECTION ( 'NONE',  ( -3.491481338843133355E-15, 1.224646799147353207E-16, -1.000000000000000000 ) ) ;
#41 = SECURITY_CLASSIFICATION_LEVEL ( 'unclassified' ) ;
#42 = LOCAL_TIME ( 13, 20, 56.00000000000000000, #111 ) ;
#43 = EDGE_LOOP ( 'NONE', ( #31 ) ) ;
#44 = APPROVAL ( #63, 'UNSPECIFIED' ) ;
#45 = CC_DESIGN_SECURITY_CLASSIFICATION ( #109, ( #4 ) ) ;
#46 = DIRECTION ( 'NONE',  ( 0.0000000000000000000, 1.000000000000000000, 0.0000000000000000000 ) ) ;
#47 = PLANE ( 'NONE',  #121 ) ;
#48 = PLANE ( 'NONE',  #198 ) ;
#49 = DIRECTION ( 'NONE',  ( -4.275831445896958607E-31, -1.000000000000000000, -1.224646799147353207E-16 ) ) ;
#50 = DIRECTION ( 'NONE',  ( 1.000000000000000000, 0.0000000000000000000, 0.0000000000000000000 ) ) ;
#51 = CIRCLE ( 'NONE', #83, 0.2999999999999999889 ) ;
#52 = APPROVAL_PERSON_ORGANIZATION ( #95, #152, #161 ) ;
#53 =( NAMED_UNIT ( * ) PLANE_ANGLE_UNIT ( ) SI_UNIT ( $, .RADIAN. ) );
#54 = CARTESIAN_POINT ( 'NONE',  ( 0.0000000000000000000, 0.0000000000000000000, 0.0000000000000000000 ) ) ;
#55 = COORDINATED_UNIVERSAL_TIME_OFFSET ( 1, 0, .AHEAD. ) ;
#56 = ORIENTED_EDGE ( 'NONE', *, *, #60, .T. ) ;
#57 = EDGE_LOOP ( 'NONE', ( #56 ) ) ;
#58 = DATE_AND_TIME ( #193, #144 ) ;
#59 = DIRECTION ( 'NONE',  ( 0.0000000000000000000, 1.000000000000000000, 0.0000000000000000000 ) ) ;
#60 = EDGE_CURVE ( 'NONE', #104, #104, #97, .T. ) ;
#61 = FACE_OUTER_BOUND ( 'NONE', #129, .T. ) ;
#62 = CARTESIAN_POINT ( 'NONE',  ( 0.0000000000000000000, 0.0000000000000000000, 0.0000000000000000000 ) ) ;
#63 = APPROVAL_STATUS ( 'not_yet_approved' ) ;
#64 = CC_DESIGN_PERSON_AND_ORGANIZATION_ASSIGNMENT ( #176, #69, ( #4 ) ) ;
#65 = CALENDAR_DATE ( 2021, 6, 10 ) ;
#66 = APPROVAL_ROLE ( '' ) ;
#67 = APPROVAL_DATE_TIME ( #26, #152 ) ;
#68 = ADVANCED_FACE ( 'NONE', ( #36 ), #47, .F. ) ;
#69 = PERSON_AND_ORGANIZATION_ROLE ( 'design_supplier' ) ;
#70 = EDGE_LOOP ( 'NONE', ( #32 ) ) ;
#71 = DIRECTION ( 'NONE',  ( 3.209883240645443156E-31, 1.000000000000000000, 9.035018104046011210E-17 ) ) ;
#72 = CIRCLE ( 'NONE', #189, 0.2999999999999953260 ) ;
#73 = FACE_OUTER_BOUND ( 'NONE', #43, .T. ) ;
#74 = DIRECTION ( 'NONE',  ( -3.209883240645443156E-31, -1.000000000000000000, -9.035018104046011210E-17 ) ) ;
#75 = DIRECTION ( 'NONE',  ( 3.491481338843133355E-15, -1.224646799147353207E-16, 1.000000000000000000 ) ) ;
#76 = CARTESIAN_POINT ( 'NONE',  ( 4.884313459823451006E-16, 0.2999999999999953260, 0.1398922974464992530 ) ) ;
#77 = DIRECTION ( 'NONE',  ( -4.275831445896958607E-31, -1.000000000000000000, -1.224646799147353207E-16 ) ) ;
#78 = CC_DESIGN_PERSON_AND_ORGANIZATION_ASSIGNMENT ( #8, #191, ( #4 ) ) ;
#79 = AXIS2_PLACEMENT_3D ( 'NONE', #62, #187, #88 ) ;
#80 = PERSON_AND_ORGANIZATION ( #108, #98 ) ;
#81 = APPLICATION_PROTOCOL_DEFINITION ( 'international standard', 'config_control_design', 1994, #130 ) ;
#82 = CARTESIAN_POINT ( 'NONE',  ( 4.538925740496073362E-14, 0.2999999999999953260, 13.00000000000000000 ) ) ;
#83 = AXIS2_PLACEMENT_3D ( 'NONE', #131, #102, #15 ) ;
#84 = CC_DESIGN_APPROVAL ( #35, ( #109 ) ) ;
#85 = EDGE_LOOP ( 'NONE', ( #183 ) ) ;
#86 = CONICAL_SURFACE ( 'NONE', #199, 0.1999999999999999833, 0.7853981633974339571 ) ;
#87 = CARTESIAN_POINT ( 'NONE',  ( 4.538925740496073362E-14, 0.2999999999999953260, 13.00000000000000000 ) ) ;
#88 = DIRECTION ( 'NONE',  ( 4.275831445896958607E-31, 1.000000000000000000, 1.224646799147353207E-16 ) ) ;
#89 = DIRECTION ( 'NONE',  ( 4.275831445896958607E-31, 1.000000000000000000, 1.224646799147353207E-16 ) ) ;
#90 = VERTEX_POINT ( 'NONE', #186 ) ;
#91 = DIRECTION ( 'NONE',  ( 4.275831445896958607E-31, 1.000000000000000000, 1.224646799147353207E-16 ) ) ;
#92 = DATE_TIME_ROLE ( 'classification_date' ) ;
#93 = ADVANCED_FACE ( 'NONE', ( #73, #155 ), #21, .T. ) ;
#94 = PERSON_AND_ORGANIZATION ( #108, #98 ) ;
#95 = PERSON_AND_ORGANIZATION ( #108, #98 ) ;
#96 = PERSON_AND_ORGANIZATION_ROLE ( 'creator' ) ;
#97 = CIRCLE ( 'NONE', #16, 0.1999999999999999833 ) ;
#98 = ORGANIZATION ( 'UNSPECIFIED', 'UNSPECIFIED', '' ) ;
#99 = ADVANCED_FACE ( 'NONE', ( #138 ), #194, .T. ) ;
#100 = ORIENTED_EDGE ( 'NONE', *, *, #12, .F. ) ;
#101 = PRODUCT_DEFINITION ( 'UNKNOWN', '', #4, #153 ) ;
#102 = DIRECTION ( 'NONE',  ( -3.491481338843133355E-15, 1.224646799147353207E-16, -1.000000000000000000 ) ) ;
#103 = AXIS2_PLACEMENT_3D ( 'NONE', #172, #1, #59 ) ;
#104 = VERTEX_POINT ( 'NONE', #170 ) ;
#105 =( GEOMETRIC_REPRESENTATION_CONTEXT ( 3 ) GLOBAL_UNCERTAINTY_ASSIGNED_CONTEXT ( ( #185 ) ) GLOBAL_UNIT_ASSIGNED_CONTEXT ( ( #147, #53, #28 ) ) REPRESENTATION_CONTEXT ( 'NONE', 'WORKASPACE' ) );
#106 = FACE_BOUND ( 'NONE', #57, .T. ) ;
#107 = CARTESIAN_POINT ( 'NONE',  ( 1.326762908760390423E-13, -4.653657836759941941E-15, 38.00000000000000000 ) ) ;
#108 = PERSON ( 'UNSPECIFIED', 'UNSPECIFIED', 'UNSPECIFIED', ('UNSPECIFIED'), ('UNSPECIFIED'), ('UNSPECIFIED') ) ;
#109 = SECURITY_CLASSIFICATION ( '', '', #41 ) ;
#110 = MECHANICAL_CONTEXT ( 'NONE', #145, 'mechanical' ) ;
#111 = COORDINATED_UNIVERSAL_TIME_OFFSET ( 1, 0, .AHEAD. ) ;
#112 = APPROVAL_PERSON_ORGANIZATION ( #80, #35, #66 ) ;
#113 = EDGE_LOOP ( 'NONE', ( #203 ) ) ;
#114 = ADVANCED_FACE ( 'NONE', ( #118 ), #48, .F. ) ;
#115 = ORIENTED_EDGE ( 'NONE', *, *, #13, .T. ) ;
#116 = ORIENTED_EDGE ( 'NONE', *, *, #60, .F. ) ;
#117 = DIRECTION ( 'NONE',  ( 0.0000000000000000000, 1.000000000000000000, 0.0000000000000000000 ) ) ;
#118 = FACE_OUTER_BOUND ( 'NONE', #85, .T. ) ;
#119 = CARTESIAN_POINT ( 'NONE',  ( 0.0000000000000000000, 0.0000000000000000000, 0.0000000000000000000 ) ) ;
#120 = DIRECTION ( 'NONE',  ( 3.491481338843133355E-15, -1.224646799147353207E-16, 1.000000000000000000 ) ) ;
#121 = AXIS2_PLACEMENT_3D ( 'NONE', #18, #40, #91 ) ;
#122 = CC_DESIGN_APPROVAL ( #44, ( #4 ) ) ;
#123 = DATE_AND_TIME ( #65, #23 ) ;
#124 = COORDINATED_UNIVERSAL_TIME_OFFSET ( 1, 0, .AHEAD. ) ;
#125 = CC_DESIGN_DATE_AND_TIME_ASSIGNMENT ( #123, #192, ( #101 ) ) ;
#126 = PERSON_AND_ORGANIZATION ( #108, #98 ) ;
#127 = EDGE_CURVE ( 'NONE', #34, #34, #3, .T. ) ;
#128 = COORDINATED_UNIVERSAL_TIME_OFFSET ( 1, 0, .AHEAD. ) ;
#129 = EDGE_LOOP ( 'NONE', ( #11 ) ) ;
#130 = APPLICATION_CONTEXT ( 'configuration controlled 3d designs of mechanical parts and assemblies' ) ;
#131 = CARTESIAN_POINT ( 'NONE',  ( 1.323271427421547605E-13, -4.641411368768468584E-15, 37.89999999999999858 ) ) ;
#132 = FACE_OUTER_BOUND ( 'NONE', #113, .T. ) ;
#133 = CC_DESIGN_DATE_AND_TIME_ASSIGNMENT ( #25, #92, ( #109 ) ) ;
#134 = ADVANCED_BREP_SHAPE_REPRESENTATION ( '57559', ( #165, #38, #139 ), #105 ) ;
#135 = CARTESIAN_POINT ( 'NONE',  ( 4.884313459823450020E-16, -1.713186542932247366E-17, 0.1398922974464992253 ) ) ;
#136 = EDGE_CURVE ( 'NONE', #149, #149, #30, .T. ) ;
#137 = AXIS2_PLACEMENT_3D ( 'NONE', #135, #75, #74 ) ;
#138 = FACE_OUTER_BOUND ( 'NONE', #166, .T. ) ;
#139 = AXIS2_PLACEMENT_3D ( 'NONE', #54, #197, #50 ) ;
#140 = CARTESIAN_POINT ( 'NONE',  ( 4.538925740496073362E-14, -1.592040838891559095E-15, 13.00000000000000000 ) ) ;
#141 = PLANE ( 'NONE',  #143 ) ;
#142 = PERSON_AND_ORGANIZATION ( #108, #98 ) ;
#143 = AXIS2_PLACEMENT_3D ( 'NONE', #174, #5, #49 ) ;
#144 = LOCAL_TIME ( 13, 20, 56.00000000000000000, #124 ) ;
#145 = APPLICATION_CONTEXT ( 'configuration controlled 3d designs of mechanical parts and assemblies' ) ;
#146 = APPROVAL_STATUS ( 'not_yet_approved' ) ;
#147 =( LENGTH_UNIT ( ) NAMED_UNIT ( * ) SI_UNIT ( .MILLI., .METRE. ) );
#148 = DIRECTION ( 'NONE',  ( -3.491481338843133355E-15, 1.224646799147353207E-16, -1.000000000000000000 ) ) ;
#149 = VERTEX_POINT ( 'NONE', #82 ) ;
#150 = DIRECTION ( 'NONE',  ( -3.491481338843133355E-15, 1.224646799147353207E-16, -1.000000000000000000 ) ) ;
#151 = ADVANCED_FACE ( 'NONE', ( #61, #2 ), #171, .T. ) ;
#152 = APPROVAL ( #27, 'UNSPECIFIED' ) ;
#153 = DESIGN_CONTEXT ( 'detailed design', #130, 'design' ) ;
#154 = VERTEX_POINT ( 'NONE', #76 ) ;
#155 = FACE_OUTER_BOUND ( 'NONE', #201, .T. ) ;
#156 = PERSON_AND_ORGANIZATION_ROLE ( 'design_owner' ) ;
#157 = AXIS2_PLACEMENT_3D ( 'NONE', #119, #37, #89 ) ;
#158 = PERSON_AND_ORGANIZATION_ROLE ( 'classification_officer' ) ;
#159 = PERSON_AND_ORGANIZATION ( #108, #98 ) ;
#160 = DATE_AND_TIME ( #180, #33 ) ;
#161 = APPROVAL_ROLE ( '' ) ;
#162 = AXIS2_PLACEMENT_3D ( 'NONE', #140, #19, #46 ) ;
#163 = CC_DESIGN_PERSON_AND_ORGANIZATION_ASSIGNMENT ( #126, #96, ( #101 ) ) ;
#164 = LOCAL_TIME ( 13, 20, 56.00000000000000000, #128 ) ;
#165 = MANIFOLD_SOLID_BREP ( 'Corps-Déplacer/Copier1[1]', #10 ) ;
#166 = EDGE_LOOP ( 'NONE', ( #115 ) ) ;
#167 = CARTESIAN_POINT ( 'NONE',  ( 4.884313459823450020E-16, -1.713186542932247366E-17, 0.1398922974464992253 ) ) ;
#168 = PRODUCT ( '57559', '57559', '', ( #110 ) ) ;
#169 = CC_DESIGN_APPROVAL ( #152, ( #101 ) ) ;
#170 = CARTESIAN_POINT ( 'NONE',  ( 1.326762908760390423E-13, 0.1999999999999953204, 38.00000000000000000 ) ) ;
#171 = CYLINDRICAL_SURFACE ( 'NONE', #157, 0.2999999999999961031 ) ;
#172 = CARTESIAN_POINT ( 'NONE',  ( 4.538925740496073362E-14, -1.592040838891559095E-15, 13.00000000000000000 ) ) ;
#173 = CARTESIAN_POINT ( 'NONE',  ( 1.326762908760390423E-13, -4.653657836759941941E-15, 38.00000000000000000 ) ) ;
#174 = CARTESIAN_POINT ( 'NONE',  ( 4.538925740496073362E-14, 2.249639673992739542E-33, 13.00000000000000000 ) ) ;
#175 = PRODUCT_RELATED_PRODUCT_CATEGORY ( 'detail', '', ( #168 ) ) ;
#176 = PERSON_AND_ORGANIZATION ( #108, #98 ) ;
#177 = APPROVAL_ROLE ( '' ) ;
#178 = CLOSED_SHELL ( 'NONE', ( #99, #151, #29 ) ) ;
#179 = ADVANCED_FACE ( 'NONE', ( #20, #106 ), #86, .T. ) ;
#180 = CALENDAR_DATE ( 2021, 6, 10 ) ;
#181 = CALENDAR_DATE ( 2021, 6, 10 ) ;
#182 = SHAPE_DEFINITION_REPRESENTATION ( #22, #134 ) ;
#183 = ORIENTED_EDGE ( 'NONE', *, *, #127, .T. ) ;
#184 = EDGE_LOOP ( 'NONE', ( #116 ) ) ;
#185 = UNCERTAINTY_MEASURE_WITH_UNIT (LENGTH_MEASURE( 1.000000000000000082E-05 ), #147, 'distance_accuracy_value', 'NONE');
#186 = CARTESIAN_POINT ( 'NONE',  ( 1.323271427421547605E-13, 0.2999999999999953260, 37.89999999999999858 ) ) ;
#187 = DIRECTION ( 'NONE',  ( -3.491481338843133355E-15, 1.224646799147353207E-16, -1.000000000000000000 ) ) ;
#188 = DIRECTION ( 'NONE',  ( 0.0000000000000000000, 1.000000000000000000, 0.0000000000000000000 ) ) ;
#189 = AXIS2_PLACEMENT_3D ( 'NONE', #167, #148, #71 ) ;
#190 = CARTESIAN_POINT ( 'NONE',  ( 4.538925740496073362E-14, 2.249639673992739542E-33, 13.00000000000000000 ) ) ;
#191 = PERSON_AND_ORGANIZATION_ROLE ( 'creator' ) ;
#192 = DATE_TIME_ROLE ( 'creation_date' ) ;
#193 = CALENDAR_DATE ( 2021, 6, 10 ) ;
#194 = CONICAL_SURFACE ( 'NONE', #137, 0.2999999999999953260, 1.134464013796309123 ) ;
#195 = CC_DESIGN_PERSON_AND_ORGANIZATION_ASSIGNMENT ( #159, #156, ( #168 ) ) ;
#196 = COORDINATED_UNIVERSAL_TIME_OFFSET ( 1, 0, .AHEAD. ) ;
#197 = DIRECTION ( 'NONE',  ( 0.0000000000000000000, 0.0000000000000000000, 1.000000000000000000 ) ) ;
#198 = AXIS2_PLACEMENT_3D ( 'NONE', #190, #120, #77 ) ;
#199 = AXIS2_PLACEMENT_3D ( 'NONE', #173, #39, #117 ) ;
#200 = EDGE_LOOP ( 'NONE', ( #100 ) ) ;
#201 = EDGE_LOOP ( 'NONE', ( #14 ) ) ;
#202 = APPROVAL_DATE_TIME ( #58, #35 ) ;
#203 = ORIENTED_EDGE ( 'NONE', *, *, #136, .F. ) ;
ENDSEC;
END-ISO-10303-21;
