ISO-10303-21;
HEADER;
FILE_DESCRIPTION (( 'STEP AP203' ),
    '1' );
FILE_NAME ('57558.step',
    '2021-10-06T11:20:53',
    ( '' ),
    ( '' ),
    'SwSTEP 2.0',
    'SolidWorks 2019',
    '' );
FILE_SCHEMA (( 'CONFIG_CONTROL_DESIGN' ));
ENDSEC;

DATA;
#1 = APPLICATION_CONTEXT ( 'configuration controlled 3d designs of mechanical parts and assemblies' ) ;
#2 = CARTESIAN_POINT ( 'NONE',  ( 4.477287338171490346E-16, -1.570420997687891647E-17, 0.1282346059926241510 ) ) ;
#3 = DIRECTION ( 'NONE',  ( 3.491481338843133355E-15, -1.224646799147353207E-16, 1.000000000000000000 ) ) ;
#4 = FACE_OUTER_BOUND ( 'NONE', #89, .T. ) ;
#5 = DIRECTION ( 'NONE',  ( 3.501690807976851697E-31, 1.000000000000000000, 9.856383386232025227E-17 ) ) ;
#6 = CIRCLE ( 'NONE', #90, 0.2749999999999964140 ) ;
#7 = PERSON_AND_ORGANIZATION ( #195, #95 ) ;
#8 = PERSON_AND_ORGANIZATION_ROLE ( 'design_supplier' ) ;
#9 = CALENDAR_DATE ( 2021, 6, 10 ) ;
#10 = DATE_AND_TIME ( #180, #23 ) ;
#11 = APPROVAL_PERSON_ORGANIZATION ( #104, #91, #67 ) ;
#12 = ORIENTED_EDGE ( 'NONE', *, *, #193, .F. ) ;
#13 = CC_DESIGN_PERSON_AND_ORGANIZATION_ASSIGNMENT ( #115, #8, ( #35 ) ) ;
#14 = DIRECTION ( 'NONE',  ( 0.0000000000000000000, 1.000000000000000000, 0.0000000000000000000 ) ) ;
#15 = CC_DESIGN_APPROVAL ( #163, ( #30 ) ) ;
#16 = DIRECTION ( 'NONE',  ( 3.491481338843133355E-15, -1.224646799147353207E-16, 1.000000000000000000 ) ) ;
#17 = VERTEX_POINT ( 'NONE', #80 ) ;
#18 = CYLINDRICAL_SURFACE ( 'NONE', #54, 0.2749999999999982458 ) ;
#19 = DIRECTION ( 'NONE',  ( -4.275831445896958607E-31, -1.000000000000000000, -1.224646799147353207E-16 ) ) ;
#20 = ADVANCED_FACE ( 'NONE', ( #88 ), #167, .F. ) ;
#21 = PERSON_AND_ORGANIZATION_ROLE ( 'creator' ) ;
#22 = PERSON_AND_ORGANIZATION ( #195, #95 ) ;
#23 = LOCAL_TIME ( 13, 20, 53.00000000000000000, #82 ) ;
#24 = COORDINATED_UNIVERSAL_TIME_OFFSET ( 1, 0, .AHEAD. ) ;
#25 = AXIS2_PLACEMENT_3D ( 'NONE', #32, #62, #14 ) ;
#26 = EDGE_LOOP ( 'NONE', ( #43 ) ) ;
#27 = AXIS2_PLACEMENT_3D ( 'NONE', #78, #144, #76 ) ;
#28 = CARTESIAN_POINT ( 'NONE',  ( 3.142333204958819389E-14, 0.2749999999999953593, 8.999999999999998224 ) ) ;
#29 =( LENGTH_UNIT ( ) NAMED_UNIT ( * ) SI_UNIT ( .MILLI., .METRE. ) );
#30 = SECURITY_CLASSIFICATION ( '', '', #68 ) ;
#31 = FACE_OUTER_BOUND ( 'NONE', #123, .T. ) ;
#32 = CARTESIAN_POINT ( 'NONE',  ( 1.326762908760390423E-13, -4.653657836759941941E-15, 38.00000000000000000 ) ) ;
#33 = CARTESIAN_POINT ( 'NONE',  ( 1.326762908760390423E-13, -4.653657836759941941E-15, 38.00000000000000000 ) ) ;
#34 = APPROVAL_ROLE ( '' ) ;
#35 = PRODUCT_DEFINITION_FORMATION_WITH_SPECIFIED_SOURCE ( 'ANY', '', #118, .NOT_KNOWN. ) ;
#36 = APPROVAL_DATE_TIME ( #117, #91 ) ;
#37 = APPROVAL_STATUS ( 'not_yet_approved' ) ;
#38 = DATE_AND_TIME ( #9, #61 ) ;
#39 = APPLICATION_CONTEXT ( 'configuration controlled 3d designs of mechanical parts and assemblies' ) ;
#40 = ADVANCED_FACE ( 'NONE', ( #51 ), #141, .T. ) ;
#41 = EDGE_LOOP ( 'NONE', ( #182 ) ) ;
#42 = CC_DESIGN_PERSON_AND_ORGANIZATION_ASSIGNMENT ( #194, #102, ( #155 ) ) ;
#43 = ORIENTED_EDGE ( 'NONE', *, *, #193, .T. ) ;
#44 = AXIS2_PLACEMENT_3D ( 'NONE', #176, #172, #59 ) ;
#45 = FACE_OUTER_BOUND ( 'NONE', #201, .T. ) ;
#46 = VERTEX_POINT ( 'NONE', #111 ) ;
#47 = FACE_BOUND ( 'NONE', #154, .T. ) ;
#48 = CLOSED_SHELL ( 'NONE', ( #133, #79, #124, #20 ) ) ;
#49 = VERTEX_POINT ( 'NONE', #175 ) ;
#50 = PRODUCT_RELATED_PRODUCT_CATEGORY ( 'detail', '', ( #118 ) ) ;
#51 = FACE_OUTER_BOUND ( 'NONE', #138, .T. ) ;
#52 = COORDINATED_UNIVERSAL_TIME_OFFSET ( 1, 0, .AHEAD. ) ;
#53 = CALENDAR_DATE ( 2021, 6, 10 ) ;
#54 = AXIS2_PLACEMENT_3D ( 'NONE', #63, #93, #158 ) ;
#55 = APPROVAL_STATUS ( 'not_yet_approved' ) ;
#56 = AXIS2_PLACEMENT_3D ( 'NONE', #127, #3, #19 ) ;
#57 = AXIS2_PLACEMENT_3D ( 'NONE', #66, #16, #81 ) ;
#58 = DESIGN_CONTEXT ( 'detailed design', #39, 'design' ) ;
#59 = DIRECTION ( 'NONE',  ( 0.0000000000000000000, 1.000000000000000000, 0.0000000000000000000 ) ) ;
#60 = CC_DESIGN_PERSON_AND_ORGANIZATION_ASSIGNMENT ( #7, #178, ( #118 ) ) ;
#61 = LOCAL_TIME ( 13, 20, 53.00000000000000000, #181 ) ;
#62 = DIRECTION ( 'NONE',  ( -3.491481338843133355E-15, 1.224646799147353207E-16, -1.000000000000000000 ) ) ;
#63 = CARTESIAN_POINT ( 'NONE',  ( 0.0000000000000000000, 0.0000000000000000000, 0.0000000000000000000 ) ) ;
#64 = FACE_OUTER_BOUND ( 'NONE', #74, .T. ) ;
#65 = CIRCLE ( 'NONE', #169, 0.2749999999999953593 ) ;
#66 = CARTESIAN_POINT ( 'NONE',  ( 4.477287338171490346E-16, -1.570420997687891647E-17, 0.1282346059926241510 ) ) ;
#67 = APPROVAL_ROLE ( '' ) ;
#68 = SECURITY_CLASSIFICATION_LEVEL ( 'unclassified' ) ;
#69 = DATE_AND_TIME ( #177, #77 ) ;
#70 = DIRECTION ( 'NONE',  ( 1.000000000000000000, 0.0000000000000000000, 0.0000000000000000000 ) ) ;
#71 = EDGE_CURVE ( 'NONE', #125, #125, #6, .T. ) ;
#72 = CC_DESIGN_APPROVAL ( #100, ( #155 ) ) ;
#73 = UNCERTAINTY_MEASURE_WITH_UNIT (LENGTH_MEASURE( 1.000000000000000082E-05 ), #29, 'distance_accuracy_value', 'NONE');
#74 = EDGE_LOOP ( 'NONE', ( #12 ) ) ;
#75 = ORIENTED_EDGE ( 'NONE', *, *, #199, .T. ) ;
#76 = DIRECTION ( 'NONE',  ( 4.275831445896958607E-31, 1.000000000000000000, 1.224646799147353207E-16 ) ) ;
#77 = LOCAL_TIME ( 13, 20, 53.00000000000000000, #134 ) ;
#78 = CARTESIAN_POINT ( 'NONE',  ( 1.326762908760390423E-13, 1.312289809829055787E-33, 38.00000000000000000 ) ) ;
#79 = ADVANCED_FACE ( 'NONE', ( #4, #157 ), #18, .T. ) ;
#80 = CARTESIAN_POINT ( 'NONE',  ( 4.477287338171491332E-16, 0.2749999999999953593, 0.1282346059926241788 ) ) ;
#81 = DIRECTION ( 'NONE',  ( -3.501690807976851697E-31, -1.000000000000000000, -9.856383386232025227E-17 ) ) ;
#82 = COORDINATED_UNIVERSAL_TIME_OFFSET ( 1, 0, .AHEAD. ) ;
#83 = CARTESIAN_POINT ( 'NONE',  ( 0.0000000000000000000, 0.0000000000000000000, 0.0000000000000000000 ) ) ;
#84 = PRODUCT_DEFINITION_SHAPE ( 'NONE', 'NONE',  #155 ) ;
#85 = APPROVAL_STATUS ( 'not_yet_approved' ) ;
#86 = EDGE_CURVE ( 'NONE', #46, #46, #122, .T. ) ;
#87 = APPLICATION_PROTOCOL_DEFINITION ( 'international standard', 'config_control_design', 1994, #1 ) ;
#88 = FACE_OUTER_BOUND ( 'NONE', #41, .T. ) ;
#89 = EDGE_LOOP ( 'NONE', ( #152 ) ) ;
#90 = AXIS2_PLACEMENT_3D ( 'NONE', #131, #189, #143 ) ;
#91 = APPROVAL ( #85, 'UNSPECIFIED' ) ;
#92 = CARTESIAN_POINT ( 'NONE',  ( 1.323271427421547605E-13, 0.2749999999999953593, 37.89999999999999858 ) ) ;
#93 = DIRECTION ( 'NONE',  ( -3.491481338843133355E-15, 1.224646799147353207E-16, -1.000000000000000000 ) ) ;
#94 = CC_DESIGN_DATE_AND_TIME_ASSIGNMENT ( #38, #119, ( #30 ) ) ;
#95 = ORGANIZATION ( 'UNSPECIFIED', 'UNSPECIFIED', '' ) ;
#96 = CARTESIAN_POINT ( 'NONE',  ( 1.323271427421547605E-13, -4.641411368768468584E-15, 37.89999999999999858 ) ) ;
#97 = CARTESIAN_POINT ( 'NONE',  ( 3.142333204958819389E-14, -5.677276830469618132E-14, 8.999999999999998224 ) ) ;
#98 = DIRECTION ( 'NONE',  ( -4.275831445896958607E-31, -1.000000000000000000, -1.224646799147353207E-16 ) ) ;
#99 = LOCAL_TIME ( 13, 20, 53.00000000000000000, #24 ) ;
#100 = APPROVAL ( #37, 'UNSPECIFIED' ) ;
#101 = PERSON_AND_ORGANIZATION ( #195, #95 ) ;
#102 = PERSON_AND_ORGANIZATION_ROLE ( 'creator' ) ;
#103 = ADVANCED_FACE ( 'NONE', ( #45, #114 ), #112, .T. ) ;
#104 = PERSON_AND_ORGANIZATION ( #195, #95 ) ;
#105 = DIRECTION ( 'NONE',  ( 0.0000000000000000000, 0.0000000000000000000, 1.000000000000000000 ) ) ;
#106 = EDGE_LOOP ( 'NONE', ( #75 ) ) ;
#107 = APPROVAL_PERSON_ORGANIZATION ( #22, #163, #164 ) ;
#108 = ORIENTED_EDGE ( 'NONE', *, *, #71, .T. ) ;
#109 = ADVANCED_FACE ( 'NONE', ( #113 ), #200, .T. ) ;
#110 = AXIS2_PLACEMENT_3D ( 'NONE', #33, #173, #186 ) ;
#111 = CARTESIAN_POINT ( 'NONE',  ( 1.326762908760390423E-13, 0.1749999999999953537, 38.00000000000000000 ) ) ;
#112 = CYLINDRICAL_SURFACE ( 'NONE', #146, 0.2749999999999959144 ) ;
#113 = FACE_OUTER_BOUND ( 'NONE', #166, .T. ) ;
#114 = FACE_OUTER_BOUND ( 'NONE', #106, .T. ) ;
#115 = PERSON_AND_ORGANIZATION ( #195, #95 ) ;
#116 = CLOSED_SHELL ( 'NONE', ( #109, #103, #40 ) ) ;
#117 = DATE_AND_TIME ( #53, #196 ) ;
#118 = PRODUCT ( '57558', '57558', '', ( #160 ) ) ;
#119 = DATE_TIME_ROLE ( 'classification_date' ) ;
#120 = APPLICATION_PROTOCOL_DEFINITION ( 'international standard', 'config_control_design', 1994, #39 ) ;
#121 = PERSON_AND_ORGANIZATION_ROLE ( 'classification_officer' ) ;
#122 = CIRCLE ( 'NONE', #25, 0.1750000000000000167 ) ;
#123 = EDGE_LOOP ( 'NONE', ( #108 ) ) ;
#124 = ADVANCED_FACE ( 'NONE', ( #64, #47 ), #190, .T. ) ;
#125 = VERTEX_POINT ( 'NONE', #28 ) ;
#126 = AXIS2_PLACEMENT_3D ( 'NONE', #97, #156, #98 ) ;
#127 = CARTESIAN_POINT ( 'NONE',  ( 3.142333204958819389E-14, -5.677276830469618132E-14, 8.999999999999998224 ) ) ;
#128 = DIRECTION ( 'NONE',  ( -3.491481338843133355E-15, 1.224646799147353207E-16, -1.000000000000000000 ) ) ;
#129 = ADVANCED_BREP_SHAPE_REPRESENTATION ( '57558', ( #171, #174, #159 ), #165 ) ;
#130 = VERTEX_POINT ( 'NONE', #92 ) ;
#131 = CARTESIAN_POINT ( 'NONE',  ( 3.142333204958819389E-14, -1.102182119232617517E-15, 8.999999999999998224 ) ) ;
#132 = EDGE_CURVE ( 'NONE', #17, #17, #65, .T. ) ;
#133 = ADVANCED_FACE ( 'NONE', ( #31 ), #191, .F. ) ;
#134 = COORDINATED_UNIVERSAL_TIME_OFFSET ( 1, 0, .AHEAD. ) ;
#135 = CC_DESIGN_SECURITY_CLASSIFICATION ( #30, ( #35 ) ) ;
#136 = APPROVAL_DATE_TIME ( #10, #163 ) ;
#137 = APPROVAL_PERSON_ORGANIZATION ( #162, #100, #34 ) ;
#138 = EDGE_LOOP ( 'NONE', ( #203 ) ) ;
#139 = CIRCLE ( 'NONE', #168, 0.2750000000000000222 ) ;
#140 = DIRECTION ( 'NONE',  ( -3.491481338843133355E-15, 1.224646799147353207E-16, -1.000000000000000000 ) ) ;
#141 = PLANE ( 'NONE',  #126 ) ;
#142 = CIRCLE ( 'NONE', #44, 0.2749999999999964140 ) ;
#143 = DIRECTION ( 'NONE',  ( 0.0000000000000000000, 1.000000000000000000, 0.0000000000000000000 ) ) ;
#144 = DIRECTION ( 'NONE',  ( -3.491481338843133355E-15, 1.224646799147353207E-16, -1.000000000000000000 ) ) ;
#145 = DIRECTION ( 'NONE',  ( -3.491481338843133355E-15, 1.224646799147353207E-16, -1.000000000000000000 ) ) ;
#146 = AXIS2_PLACEMENT_3D ( 'NONE', #170, #128, #188 ) ;
#147 = SHAPE_DEFINITION_REPRESENTATION ( #84, #129 ) ;
#148 = APPROVAL_DATE_TIME ( #69, #100 ) ;
#149 = PERSON_AND_ORGANIZATION ( #195, #95 ) ;
#150 = CC_DESIGN_PERSON_AND_ORGANIZATION_ASSIGNMENT ( #101, #21, ( #35 ) ) ;
#151 = CC_DESIGN_APPROVAL ( #91, ( #35 ) ) ;
#152 = ORIENTED_EDGE ( 'NONE', *, *, #71, .F. ) ;
#153 = CC_DESIGN_PERSON_AND_ORGANIZATION_ASSIGNMENT ( #149, #121, ( #30 ) ) ;
#154 = EDGE_LOOP ( 'NONE', ( #202 ) ) ;
#155 = PRODUCT_DEFINITION ( 'UNKNOWN', '', #35, #58 ) ;
#156 = DIRECTION ( 'NONE',  ( 3.491481338843133355E-15, -1.224646799147353207E-16, 1.000000000000000000 ) ) ;
#157 = FACE_OUTER_BOUND ( 'NONE', #26, .T. ) ;
#158 = DIRECTION ( 'NONE',  ( 4.275831445896958607E-31, 1.000000000000000000, 1.224646799147353207E-16 ) ) ;
#159 = AXIS2_PLACEMENT_3D ( 'NONE', #83, #105, #70 ) ;
#160 = MECHANICAL_CONTEXT ( 'NONE', #1, 'mechanical' ) ;
#161 = DATE_AND_TIME ( #198, #99 ) ;
#162 = PERSON_AND_ORGANIZATION ( #195, #95 ) ;
#163 = APPROVAL ( #55, 'UNSPECIFIED' ) ;
#164 = APPROVAL_ROLE ( '' ) ;
#165 =( GEOMETRIC_REPRESENTATION_CONTEXT ( 3 ) GLOBAL_UNCERTAINTY_ASSIGNED_CONTEXT ( ( #73 ) ) GLOBAL_UNIT_ASSIGNED_CONTEXT ( ( #29, #197, #179 ) ) REPRESENTATION_CONTEXT ( 'NONE', 'WORKASPACE' ) );
#166 = EDGE_LOOP ( 'NONE', ( #184 ) ) ;
#167 = PLANE ( 'NONE',  #27 ) ;
#168 = AXIS2_PLACEMENT_3D ( 'NONE', #96, #140, #187 ) ;
#169 = AXIS2_PLACEMENT_3D ( 'NONE', #2, #145, #5 ) ;
#170 = CARTESIAN_POINT ( 'NONE',  ( 0.0000000000000000000, 0.0000000000000000000, 0.0000000000000000000 ) ) ;
#171 = MANIFOLD_SOLID_BREP ( 'Corps-Déplacer/Copier1[1]', #48 ) ;
#172 = DIRECTION ( 'NONE',  ( -3.491481338843133355E-15, 1.224646799147353207E-16, -1.000000000000000000 ) ) ;
#173 = DIRECTION ( 'NONE',  ( -3.491481338843133355E-15, 1.224646799147353207E-16, -1.000000000000000000 ) ) ;
#174 = MANIFOLD_SOLID_BREP ( 'Corps-Déplacer/Copier1[2]', #116 ) ;
#175 = CARTESIAN_POINT ( 'NONE',  ( 3.142333204958819389E-14, 0.2749999999999953593, 8.999999999999998224 ) ) ;
#176 = CARTESIAN_POINT ( 'NONE',  ( 3.142333204958819389E-14, -1.102182119232617517E-15, 8.999999999999998224 ) ) ;
#177 = CALENDAR_DATE ( 2021, 6, 10 ) ;
#178 = PERSON_AND_ORGANIZATION_ROLE ( 'design_owner' ) ;
#179 =( NAMED_UNIT ( * ) SI_UNIT ( $, .STERADIAN. ) SOLID_ANGLE_UNIT ( ) );
#180 = CALENDAR_DATE ( 2021, 6, 10 ) ;
#181 = COORDINATED_UNIVERSAL_TIME_OFFSET ( 1, 0, .AHEAD. ) ;
#182 = ORIENTED_EDGE ( 'NONE', *, *, #86, .F. ) ;
#183 = ORIENTED_EDGE ( 'NONE', *, *, #132, .F. ) ;
#184 = ORIENTED_EDGE ( 'NONE', *, *, #132, .T. ) ;
#185 = CC_DESIGN_DATE_AND_TIME_ASSIGNMENT ( #161, #192, ( #155 ) ) ;
#186 = DIRECTION ( 'NONE',  ( 0.0000000000000000000, 1.000000000000000000, 0.0000000000000000000 ) ) ;
#187 = DIRECTION ( 'NONE',  ( 0.0000000000000000000, 1.000000000000000000, 0.0000000000000000000 ) ) ;
#188 = DIRECTION ( 'NONE',  ( 4.275831445896958607E-31, 1.000000000000000000, 1.224646799147352961E-16 ) ) ;
#189 = DIRECTION ( 'NONE',  ( -3.491481338843133355E-15, 1.224646799147353207E-16, -1.000000000000000000 ) ) ;
#190 = CONICAL_SURFACE ( 'NONE', #110, 0.1750000000000000167, 0.7853981633974339571 ) ;
#191 = PLANE ( 'NONE',  #56 ) ;
#192 = DATE_TIME_ROLE ( 'creation_date' ) ;
#193 = EDGE_CURVE ( 'NONE', #130, #130, #139, .T. ) ;
#194 = PERSON_AND_ORGANIZATION ( #195, #95 ) ;
#195 = PERSON ( 'UNSPECIFIED', 'UNSPECIFIED', 'UNSPECIFIED', ('UNSPECIFIED'), ('UNSPECIFIED'), ('UNSPECIFIED') ) ;
#196 = LOCAL_TIME ( 13, 20, 53.00000000000000000, #52 ) ;
#197 =( NAMED_UNIT ( * ) PLANE_ANGLE_UNIT ( ) SI_UNIT ( $, .RADIAN. ) );
#198 = CALENDAR_DATE ( 2021, 6, 10 ) ;
#199 = EDGE_CURVE ( 'NONE', #49, #49, #142, .T. ) ;
#200 = CONICAL_SURFACE ( 'NONE', #57, 0.2749999999999953593, 1.134464013796309123 ) ;
#201 = EDGE_LOOP ( 'NONE', ( #183 ) ) ;
#202 = ORIENTED_EDGE ( 'NONE', *, *, #86, .T. ) ;
#203 = ORIENTED_EDGE ( 'NONE', *, *, #199, .F. ) ;
ENDSEC;
END-ISO-10303-21;
