ISO-10303-21;
HEADER;
FILE_DESCRIPTION (( 'STEP AP203' ),
    '1' );
FILE_NAME ('57557.step',
    '2021-10-06T11:20:51',
    ( '' ),
    ( '' ),
    'SwSTEP 2.0',
    'SolidWorks 2019',
    '' );
FILE_SCHEMA (( 'CONFIG_CONTROL_DESIGN' ));
ENDSEC;

DATA;
#1 = ADVANCED_FACE ( 'NONE', ( #133 ), #151, .F. ) ;
#2 = PERSON_AND_ORGANIZATION ( #68, #171 ) ;
#3 = EDGE_LOOP ( 'NONE', ( #14 ) ) ;
#4 = AXIS2_PLACEMENT_3D ( 'NONE', #180, #196, #10 ) ;
#5 = DATE_AND_TIME ( #141, #114 ) ;
#6 = EDGE_LOOP ( 'NONE', ( #149 ) ) ;
#7 = FACE_OUTER_BOUND ( 'NONE', #172, .T. ) ;
#8 =( GEOMETRIC_REPRESENTATION_CONTEXT ( 3 ) GLOBAL_UNCERTAINTY_ASSIGNED_CONTEXT ( ( #104 ) ) GLOBAL_UNIT_ASSIGNED_CONTEXT ( ( #22, #21, #76 ) ) REPRESENTATION_CONTEXT ( 'NONE', 'WORKASPACE' ) );
#9 = DIRECTION ( 'NONE',  ( -4.275831445896958607E-31, -1.000000000000000000, -1.224646799147353207E-16 ) ) ;
#10 = DIRECTION ( 'NONE',  ( -3.851859888774588627E-31, -1.000000000000000000, -1.084202172485537344E-16 ) ) ;
#11 = EDGE_LOOP ( 'NONE', ( #182 ) ) ;
#12 = CYLINDRICAL_SURFACE ( 'NONE', #155, 0.2499999999999952816 ) ;
#13 = AXIS2_PLACEMENT_3D ( 'NONE', #175, #145, #45 ) ;
#14 = ORIENTED_EDGE ( 'NONE', *, *, #80, .F. ) ;
#15 = DIRECTION ( 'NONE',  ( -3.491481338843133355E-15, 1.224646799147353207E-16, -1.000000000000000000 ) ) ;
#16 = APPROVAL_DATE_TIME ( #99, #66 ) ;
#17 = APPLICATION_PROTOCOL_DEFINITION ( 'international standard', 'config_control_design', 1994, #25 ) ;
#18 = AXIS2_PLACEMENT_3D ( 'NONE', #69, #58, #164 ) ;
#19 = CALENDAR_DATE ( 2021, 6, 10 ) ;
#20 = EDGE_CURVE ( 'NONE', #60, #60, #59, .T. ) ;
#21 =( NAMED_UNIT ( * ) PLANE_ANGLE_UNIT ( ) SI_UNIT ( $, .RADIAN. ) );
#22 =( LENGTH_UNIT ( ) NAMED_UNIT ( * ) SI_UNIT ( .MILLI., .METRE. ) );
#23 = AXIS2_PLACEMENT_3D ( 'NONE', #147, #119, #49 ) ;
#24 = CARTESIAN_POINT ( 'NONE',  ( 1.326762908760390423E-13, -4.653657836759941941E-15, 38.00000000000000000 ) ) ;
#25 = APPLICATION_CONTEXT ( 'configuration controlled 3d designs of mechanical parts and assemblies' ) ;
#26 = VERTEX_POINT ( 'NONE', #146 ) ;
#27 = AXIS2_PLACEMENT_3D ( 'NONE', #28, #127, #74 ) ;
#28 = CARTESIAN_POINT ( 'NONE',  ( 3.142333204958819389E-14, -1.102182119232617517E-15, 8.999999999999998224 ) ) ;
#29 = CARTESIAN_POINT ( 'NONE',  ( 3.142333204958819389E-14, 1.874699728327255298E-33, 8.999999999999998224 ) ) ;
#30 = CARTESIAN_POINT ( 'NONE',  ( 1.323271427421547352E-13, 0.2499999999999924227, 37.89999999999999147 ) ) ;
#31 = DESIGN_CONTEXT ( 'detailed design', #112, 'design' ) ;
#32 = APPROVAL ( #108, 'UNSPECIFIED' ) ;
#33 = APPROVAL_STATUS ( 'not_yet_approved' ) ;
#34 = APPROVAL_DATE_TIME ( #184, #82 ) ;
#35 = EDGE_CURVE ( 'NONE', #121, #121, #197, .T. ) ;
#36 = CLOSED_SHELL ( 'NONE', ( #51, #134, #169 ) ) ;
#37 = PERSON_AND_ORGANIZATION ( #68, #171 ) ;
#38 = MANIFOLD_SOLID_BREP ( 'Corps-Déplacer/Copier1[2]', #36 ) ;
#39 = PERSON_AND_ORGANIZATION_ROLE ( 'classification_officer' ) ;
#40 = APPROVAL_PERSON_ORGANIZATION ( #52, #66, #110 ) ;
#41 = MANIFOLD_SOLID_BREP ( 'Corps-Déplacer/Copier1[1]', #176 ) ;
#42 = ORIENTED_EDGE ( 'NONE', *, *, #62, .F. ) ;
#43 = CONICAL_SURFACE ( 'NONE', #150, 0.1499999999999968026, 0.7853981633974006504 ) ;
#44 = VERTEX_POINT ( 'NONE', #160 ) ;
#45 = DIRECTION ( 'NONE',  ( 4.275831445896958607E-31, 1.000000000000000000, 1.224646799147353207E-16 ) ) ;
#46 = LOCAL_TIME ( 13, 20, 51.00000000000000000, #167 ) ;
#47 = PLANE ( 'NONE',  #13 ) ;
#48 = CARTESIAN_POINT ( 'NONE',  ( 1.326762908760390423E-13, 0.1499999999999921396, 38.00000000000000000 ) ) ;
#49 = DIRECTION ( 'NONE',  ( 0.0000000000000000000, 1.000000000000000000, 0.0000000000000000000 ) ) ;
#50 = PERSON_AND_ORGANIZATION ( #68, #171 ) ;
#51 = ADVANCED_FACE ( 'NONE', ( #7 ), #92, .T. ) ;
#52 = PERSON_AND_ORGANIZATION ( #68, #171 ) ;
#53 = COORDINATED_UNIVERSAL_TIME_OFFSET ( 1, 0, .AHEAD. ) ;
#54 = APPROVAL_PERSON_ORGANIZATION ( #135, #32, #96 ) ;
#55 = CARTESIAN_POINT ( 'NONE',  ( 4.070261216519488271E-16, -1.427655452443520828E-17, 0.1165769145387478417 ) ) ;
#56 = ADVANCED_BREP_SHAPE_REPRESENTATION ( '57557', ( #41, #38, #73 ), #8 ) ;
#57 = DIRECTION ( 'NONE',  ( 0.0000000000000000000, 1.000000000000000000, 0.0000000000000000000 ) ) ;
#58 = DIRECTION ( 'NONE',  ( -3.491481338843133355E-15, 1.224646799147353207E-16, -1.000000000000000000 ) ) ;
#59 = CIRCLE ( 'NONE', #84, 0.1499999999999968026 ) ;
#60 = VERTEX_POINT ( 'NONE', #48 ) ;
#61 = CARTESIAN_POINT ( 'NONE',  ( 3.142333204958819389E-14, -1.102182119232617517E-15, 8.999999999999998224 ) ) ;
#62 = EDGE_CURVE ( 'NONE', #91, #91, #64, .T. ) ;
#63 = PERSON_AND_ORGANIZATION ( #68, #171 ) ;
#64 = CIRCLE ( 'NONE', #115, 0.2499999999999935052 ) ;
#65 = CC_DESIGN_PERSON_AND_ORGANIZATION_ASSIGNMENT ( #63, #39, ( #87 ) ) ;
#66 = APPROVAL ( #140, 'UNSPECIFIED' ) ;
#67 = CC_DESIGN_APPROVAL ( #66, ( #93 ) ) ;
#68 = PERSON ( 'UNSPECIFIED', 'UNSPECIFIED', 'UNSPECIFIED', ('UNSPECIFIED'), ('UNSPECIFIED'), ('UNSPECIFIED') ) ;
#69 = CARTESIAN_POINT ( 'NONE',  ( 0.0000000000000000000, 0.0000000000000000000, 0.0000000000000000000 ) ) ;
#70 = FACE_OUTER_BOUND ( 'NONE', #71, .T. ) ;
#71 = EDGE_LOOP ( 'NONE', ( #116 ) ) ;
#72 = DIRECTION ( 'NONE',  ( -3.491481338843133355E-15, 1.224646799147353207E-16, -1.000000000000000000 ) ) ;
#73 = AXIS2_PLACEMENT_3D ( 'NONE', #111, #201, #186 ) ;
#74 = DIRECTION ( 'NONE',  ( 0.0000000000000000000, 1.000000000000000000, 0.0000000000000000000 ) ) ;
#75 = PERSON_AND_ORGANIZATION_ROLE ( 'design_supplier' ) ;
#76 =( NAMED_UNIT ( * ) SI_UNIT ( $, .STERADIAN. ) SOLID_ANGLE_UNIT ( ) );
#77 = DATE_AND_TIME ( #168, #101 ) ;
#78 = ORIENTED_EDGE ( 'NONE', *, *, #138, .T. ) ;
#79 = PRODUCT ( '57557', '57557', '', ( #139 ) ) ;
#80 = EDGE_CURVE ( 'NONE', #44, #44, #198, .T. ) ;
#81 = DATE_TIME_ROLE ( 'creation_date' ) ;
#82 = APPROVAL ( #33, 'UNSPECIFIED' ) ;
#83 = ORIENTED_EDGE ( 'NONE', *, *, #138, .F. ) ;
#84 = AXIS2_PLACEMENT_3D ( 'NONE', #130, #15, #57 ) ;
#85 = CARTESIAN_POINT ( 'NONE',  ( 3.142333204958819389E-14, 0.2499999999999924227, 8.999999999999998224 ) ) ;
#86 = FACE_OUTER_BOUND ( 'NONE', #6, .T. ) ;
#87 = SECURITY_CLASSIFICATION ( '', '', #156 ) ;
#88 = EDGE_LOOP ( 'NONE', ( #157 ) ) ;
#89 = DIRECTION ( 'NONE',  ( -4.275831445896958607E-31, -1.000000000000000000, -1.224646799147353207E-16 ) ) ;
#90 = FACE_OUTER_BOUND ( 'NONE', #148, .T. ) ;
#91 = VERTEX_POINT ( 'NONE', #85 ) ;
#92 = CONICAL_SURFACE ( 'NONE', #4, 0.2499999999999924227, 1.134464013796308457 ) ;
#93 = PRODUCT_DEFINITION_FORMATION_WITH_SPECIFIED_SOURCE ( 'ANY', '', #79, .NOT_KNOWN. ) ;
#94 = PRODUCT_DEFINITION_SHAPE ( 'NONE', 'NONE',  #154 ) ;
#95 = PERSON_AND_ORGANIZATION_ROLE ( 'creator' ) ;
#96 = APPROVAL_ROLE ( '' ) ;
#97 = PERSON_AND_ORGANIZATION ( #68, #171 ) ;
#98 = ORIENTED_EDGE ( 'NONE', *, *, #35, .F. ) ;
#99 = DATE_AND_TIME ( #166, #46 ) ;
#100 = PRODUCT_RELATED_PRODUCT_CATEGORY ( 'detail', '', ( #79 ) ) ;
#101 = LOCAL_TIME ( 13, 20, 51.00000000000000000, #53 ) ;
#102 = ADVANCED_FACE ( 'NONE', ( #193 ), #47, .F. ) ;
#103 = CYLINDRICAL_SURFACE ( 'NONE', #18, 0.2499999999999929501 ) ;
#104 = UNCERTAINTY_MEASURE_WITH_UNIT (LENGTH_MEASURE( 1.000000000000000082E-05 ), #22, 'distance_accuracy_value', 'NONE');
#105 = FACE_OUTER_BOUND ( 'NONE', #3, .T. ) ;
#106 = FACE_OUTER_BOUND ( 'NONE', #173, .T. ) ;
#107 = FACE_BOUND ( 'NONE', #11, .T. ) ;
#108 = APPROVAL_STATUS ( 'not_yet_approved' ) ;
#109 = EDGE_LOOP ( 'NONE', ( #128 ) ) ;
#110 = APPROVAL_ROLE ( '' ) ;
#111 = CARTESIAN_POINT ( 'NONE',  ( 0.0000000000000000000, 0.0000000000000000000, 0.0000000000000000000 ) ) ;
#112 = APPLICATION_CONTEXT ( 'configuration controlled 3d designs of mechanical parts and assemblies' ) ;
#113 = EDGE_LOOP ( 'NONE', ( #98 ) ) ;
#114 = LOCAL_TIME ( 13, 20, 51.00000000000000000, #158 ) ;
#115 = AXIS2_PLACEMENT_3D ( 'NONE', #61, #122, #200 ) ;
#116 = ORIENTED_EDGE ( 'NONE', *, *, #80, .T. ) ;
#117 = DIRECTION ( 'NONE',  ( -3.491481338843133355E-15, 1.224646799147353207E-16, -1.000000000000000000 ) ) ;
#118 = CC_DESIGN_PERSON_AND_ORGANIZATION_ASSIGNMENT ( #2, #75, ( #93 ) ) ;
#119 = DIRECTION ( 'NONE',  ( -3.491481338843133355E-15, 1.224646799147353207E-16, -1.000000000000000000 ) ) ;
#120 = DIRECTION ( 'NONE',  ( -3.491481338843133355E-15, 1.224646799147353207E-16, -1.000000000000000000 ) ) ;
#121 = VERTEX_POINT ( 'NONE', #30 ) ;
#122 = DIRECTION ( 'NONE',  ( -3.491481338843133355E-15, 1.224646799147353207E-16, -1.000000000000000000 ) ) ;
#123 = COORDINATED_UNIVERSAL_TIME_OFFSET ( 1, 0, .AHEAD. ) ;
#124 = APPROVAL_PERSON_ORGANIZATION ( #37, #82, #153 ) ;
#125 = PERSON_AND_ORGANIZATION ( #68, #171 ) ;
#126 = PERSON_AND_ORGANIZATION_ROLE ( 'creator' ) ;
#127 = DIRECTION ( 'NONE',  ( -3.491481338843133355E-15, 1.224646799147353207E-16, -1.000000000000000000 ) ) ;
#128 = ORIENTED_EDGE ( 'NONE', *, *, #62, .T. ) ;
#129 = DIRECTION ( 'NONE',  ( 0.0000000000000000000, 1.000000000000000000, 0.0000000000000000000 ) ) ;
#130 = CARTESIAN_POINT ( 'NONE',  ( 1.326762908760390423E-13, -4.653657836759941941E-15, 38.00000000000000000 ) ) ;
#131 = CARTESIAN_POINT ( 'NONE',  ( 3.142333204958819389E-14, 1.874699728327255298E-33, 8.999999999999998224 ) ) ;
#132 = CC_DESIGN_SECURITY_CLASSIFICATION ( #87, ( #93 ) ) ;
#133 = FACE_OUTER_BOUND ( 'NONE', #109, .T. ) ;
#134 = ADVANCED_FACE ( 'NONE', ( #106, #70 ), #103, .T. ) ;
#135 = PERSON_AND_ORGANIZATION ( #68, #171 ) ;
#136 = COORDINATED_UNIVERSAL_TIME_OFFSET ( 1, 0, .AHEAD. ) ;
#137 = AXIS2_PLACEMENT_3D ( 'NONE', #55, #120, #161 ) ;
#138 = EDGE_CURVE ( 'NONE', #26, #26, #142, .T. ) ;
#139 = MECHANICAL_CONTEXT ( 'NONE', #25, 'mechanical' ) ;
#140 = APPROVAL_STATUS ( 'not_yet_approved' ) ;
#141 = CALENDAR_DATE ( 2021, 6, 10 ) ;
#142 = CIRCLE ( 'NONE', #137, 0.2499999999999924227 ) ;
#143 = CC_DESIGN_DATE_AND_TIME_ASSIGNMENT ( #5, #152, ( #87 ) ) ;
#144 = APPROVAL_DATE_TIME ( #183, #32 ) ;
#145 = DIRECTION ( 'NONE',  ( -3.491481338843133355E-15, 1.224646799147353207E-16, -1.000000000000000000 ) ) ;
#146 = CARTESIAN_POINT ( 'NONE',  ( 4.070261216519489257E-16, 0.2499999999999924227, 0.1165769145387478556 ) ) ;
#147 = CARTESIAN_POINT ( 'NONE',  ( 1.323271427421547352E-13, -4.641411368768467795E-15, 37.89999999999999147 ) ) ;
#148 = EDGE_LOOP ( 'NONE', ( #42 ) ) ;
#149 = ORIENTED_EDGE ( 'NONE', *, *, #35, .T. ) ;
#150 = AXIS2_PLACEMENT_3D ( 'NONE', #24, #117, #129 ) ;
#151 = PLANE ( 'NONE',  #185 ) ;
#152 = DATE_TIME_ROLE ( 'classification_date' ) ;
#153 = APPROVAL_ROLE ( '' ) ;
#154 = PRODUCT_DEFINITION ( 'UNKNOWN', '', #93, #31 ) ;
#155 = AXIS2_PLACEMENT_3D ( 'NONE', #194, #72, #199 ) ;
#156 = SECURITY_CLASSIFICATION_LEVEL ( 'unclassified' ) ;
#157 = ORIENTED_EDGE ( 'NONE', *, *, #20, .F. ) ;
#158 = COORDINATED_UNIVERSAL_TIME_OFFSET ( 1, 0, .AHEAD. ) ;
#159 = LOCAL_TIME ( 13, 20, 51.00000000000000000, #136 ) ;
#160 = CARTESIAN_POINT ( 'NONE',  ( 3.142333204958819389E-14, 0.2499999999999924227, 8.999999999999998224 ) ) ;
#161 = DIRECTION ( 'NONE',  ( 3.851859888774588627E-31, 1.000000000000000000, 1.084202172485537344E-16 ) ) ;
#162 = PLANE ( 'NONE',  #187 ) ;
#163 = ADVANCED_FACE ( 'NONE', ( #181, #107 ), #43, .T. ) ;
#164 = DIRECTION ( 'NONE',  ( 4.275831445896959482E-31, 1.000000000000000000, 1.224646799147353207E-16 ) ) ;
#165 = PERSON_AND_ORGANIZATION_ROLE ( 'design_owner' ) ;
#166 = CALENDAR_DATE ( 2021, 6, 10 ) ;
#167 = COORDINATED_UNIVERSAL_TIME_OFFSET ( 1, 0, .AHEAD. ) ;
#168 = CALENDAR_DATE ( 2021, 6, 10 ) ;
#169 = ADVANCED_FACE ( 'NONE', ( #105 ), #162, .T. ) ;
#170 = SHAPE_DEFINITION_REPRESENTATION ( #94, #56 ) ;
#171 = ORGANIZATION ( 'UNSPECIFIED', 'UNSPECIFIED', '' ) ;
#172 = EDGE_LOOP ( 'NONE', ( #78 ) ) ;
#173 = EDGE_LOOP ( 'NONE', ( #83 ) ) ;
#174 = DIRECTION ( 'NONE',  ( 3.491481338843133355E-15, -1.224646799147353207E-16, 1.000000000000000000 ) ) ;
#175 = CARTESIAN_POINT ( 'NONE',  ( 1.326762908760390423E-13, 1.124819836996299467E-33, 38.00000000000000000 ) ) ;
#176 = CLOSED_SHELL ( 'NONE', ( #1, #188, #163, #102 ) ) ;
#177 = CC_DESIGN_APPROVAL ( #32, ( #87 ) ) ;
#178 = DIRECTION ( 'NONE',  ( 3.491481338843133355E-15, -1.224646799147353207E-16, 1.000000000000000000 ) ) ;
#179 = CC_DESIGN_PERSON_AND_ORGANIZATION_ASSIGNMENT ( #50, #126, ( #154 ) ) ;
#180 = CARTESIAN_POINT ( 'NONE',  ( 4.070261216519488271E-16, -1.427655452443520828E-17, 0.1165769145387478417 ) ) ;
#181 = FACE_OUTER_BOUND ( 'NONE', #113, .T. ) ;
#182 = ORIENTED_EDGE ( 'NONE', *, *, #20, .T. ) ;
#183 = DATE_AND_TIME ( #203, #159 ) ;
#184 = DATE_AND_TIME ( #19, #202 ) ;
#185 = AXIS2_PLACEMENT_3D ( 'NONE', #131, #178, #9 ) ;
#186 = DIRECTION ( 'NONE',  ( 1.000000000000000000, 0.0000000000000000000, 0.0000000000000000000 ) ) ;
#187 = AXIS2_PLACEMENT_3D ( 'NONE', #29, #174, #89 ) ;
#188 = ADVANCED_FACE ( 'NONE', ( #90, #86 ), #12, .T. ) ;
#189 = APPLICATION_PROTOCOL_DEFINITION ( 'international standard', 'config_control_design', 1994, #112 ) ;
#190 = CC_DESIGN_PERSON_AND_ORGANIZATION_ASSIGNMENT ( #125, #165, ( #79 ) ) ;
#191 = CC_DESIGN_PERSON_AND_ORGANIZATION_ASSIGNMENT ( #97, #95, ( #93 ) ) ;
#192 = CC_DESIGN_APPROVAL ( #82, ( #154 ) ) ;
#193 = FACE_OUTER_BOUND ( 'NONE', #88, .T. ) ;
#194 = CARTESIAN_POINT ( 'NONE',  ( 0.0000000000000000000, 0.0000000000000000000, 0.0000000000000000000 ) ) ;
#195 = CC_DESIGN_DATE_AND_TIME_ASSIGNMENT ( #77, #81, ( #154 ) ) ;
#196 = DIRECTION ( 'NONE',  ( 3.491481338843133355E-15, -1.224646799147353207E-16, 1.000000000000000000 ) ) ;
#197 = CIRCLE ( 'NONE', #23, 0.2499999999999970857 ) ;
#198 = CIRCLE ( 'NONE', #27, 0.2499999999999935052 ) ;
#199 = DIRECTION ( 'NONE',  ( 4.275831445896958607E-31, 1.000000000000000000, 1.224646799147353207E-16 ) ) ;
#200 = DIRECTION ( 'NONE',  ( 0.0000000000000000000, 1.000000000000000000, 0.0000000000000000000 ) ) ;
#201 = DIRECTION ( 'NONE',  ( 0.0000000000000000000, 0.0000000000000000000, 1.000000000000000000 ) ) ;
#202 = LOCAL_TIME ( 13, 20, 51.00000000000000000, #123 ) ;
#203 = CALENDAR_DATE ( 2021, 6, 10 ) ;
ENDSEC;
END-ISO-10303-21;
