ISO-10303-21;
HEADER;
FILE_DESCRIPTION (( 'STEP AP203' ),
    '1' );
FILE_NAME ('57253.step',
    '2021-11-15T14:47:07',
    ( '' ),
    ( '' ),
    'SwSTEP 2.0',
    'SolidWorks 2019',
    '' );
FILE_SCHEMA (( 'CONFIG_CONTROL_DESIGN' ));
ENDSEC;

DATA;
#1 = DIRECTION ( 'NONE',  ( 3.491481338843133355E-15, -1.224646799147353454E-16, 1.000000000000000000 ) ) ;
#2 =( NAMED_UNIT ( * ) SI_UNIT ( $, .STERADIAN. ) SOLID_ANGLE_UNIT ( ) );
#3 = MECHANICAL_CONTEXT ( 'NONE', #173, 'mechanical' ) ;
#4 = AXIS2_PLACEMENT_3D ( 'NONE', #192, #136, #119 ) ;
#5 = ADVANCED_FACE ( 'NONE', ( #40 ), #46, .T. ) ;
#6 = SHAPE_DEFINITION_REPRESENTATION ( #44, #17 ) ;
#7 = ADVANCED_FACE ( 'NONE', ( #111 ), #176, .F. ) ;
#8 = AXIS2_PLACEMENT_3D ( 'NONE', #61, #148, #115 ) ;
#9 = PERSON_AND_ORGANIZATION ( #90, #27 ) ;
#10 = DATE_TIME_ROLE ( 'creation_date' ) ;
#11 = PERSON_AND_ORGANIZATION_ROLE ( 'classification_officer' ) ;
#12 = PRODUCT_DEFINITION_FORMATION_WITH_SPECIFIED_SOURCE ( 'ANY', '', #47, .NOT_KNOWN. ) ;
#13 = APPLICATION_PROTOCOL_DEFINITION ( 'international standard', 'config_control_design', 1994, #173 ) ;
#14 = EDGE_CURVE ( 'NONE', #100, #100, #131, .T. ) ;
#15 = AXIS2_PLACEMENT_3D ( 'NONE', #195, #103, #135 ) ;
#16 = DIRECTION ( 'NONE',  ( -3.491481338843133355E-15, 1.224646799147353454E-16, -1.000000000000000000 ) ) ;
#17 = ADVANCED_BREP_SHAPE_REPRESENTATION ( '57253', ( #105, #170, #145 ), #88 ) ;
#18 = FACE_BOUND ( 'NONE', #160, .T. ) ;
#19 = EDGE_CURVE ( 'NONE', #164, #164, #197, .T. ) ;
#20 = CARTESIAN_POINT ( 'NONE',  ( 3.596225779008426472E-13, 9.999999999999987566, 102.9999999999999858 ) ) ;
#21 = AXIS2_PLACEMENT_3D ( 'NONE', #35, #194, #118 ) ;
#22 = PLANE ( 'NONE',  #84 ) ;
#23 = CALENDAR_DATE ( 2021, 15, 11 ) ;
#24 = CC_DESIGN_PERSON_AND_ORGANIZATION_ASSIGNMENT ( #141, #110, ( #142 ) ) ;
#25 = EDGE_CURVE ( 'NONE', #180, #180, #64, .T. ) ;
#26 = ORIENTED_EDGE ( 'NONE', *, *, #150, .T. ) ;
#27 = ORGANIZATION ( 'UNSPECIFIED', 'UNSPECIFIED', '' ) ;
#28 = DATE_AND_TIME ( #96, #122 ) ;
#29 = EDGE_LOOP ( 'NONE', ( #60 ) ) ;
#30 = CARTESIAN_POINT ( 'NONE',  ( -1.710328862951406993E-30, 5.999026098752630790E-32, -4.898576555239751833E-16 ) ) ;
#31 = AXIS2_PLACEMENT_3D ( 'NONE', #181, #68, #179 ) ;
#32 = DIRECTION ( 'NONE',  ( 0.0000000000000000000, 1.000000000000000000, 0.0000000000000000000 ) ) ;
#33 = CC_DESIGN_PERSON_AND_ORGANIZATION_ASSIGNMENT ( #9, #56, ( #12 ) ) ;
#34 = VERTEX_POINT ( 'NONE', #101 ) ;
#35 = CARTESIAN_POINT ( 'NONE',  ( -3.420657725902813987E-30, 1.199805219750526158E-31, -9.797153110479503665E-16 ) ) ;
#36 = PERSON_AND_ORGANIZATION ( #90, #27 ) ;
#37 = APPROVAL_PERSON_ORGANIZATION ( #59, #161, #185 ) ;
#38 = SECURITY_CLASSIFICATION_LEVEL ( 'unclassified' ) ;
#39 = AXIS2_PLACEMENT_3D ( 'NONE', #154, #81, #193 ) ;
#40 = FACE_OUTER_BOUND ( 'NONE', #158, .T. ) ;
#41 = ADVANCED_FACE ( 'NONE', ( #65 ), #22, .F. ) ;
#42 = ORIENTED_EDGE ( 'NONE', *, *, #150, .F. ) ;
#43 = COORDINATED_UNIVERSAL_TIME_OFFSET ( 1, 0, .AHEAD. ) ;
#44 = PRODUCT_DEFINITION_SHAPE ( 'NONE', 'NONE',  #142 ) ;
#45 = CIRCLE ( 'NONE', #4, 9.999999999999992895 ) ;
#46 = PLANE ( 'NONE',  #8 ) ;
#47 = PRODUCT ( '57253', '57253', '', ( #3 ) ) ;
#48 = ORIENTED_EDGE ( 'NONE', *, *, #14, .F. ) ;
#49 = ADVANCED_FACE ( 'NONE', ( #66, #51 ), #163, .T. ) ;
#50 = FACE_OUTER_BOUND ( 'NONE', #29, .T. ) ;
#51 = FACE_OUTER_BOUND ( 'NONE', #77, .T. ) ;
#52 = CYLINDRICAL_SURFACE ( 'NONE', #15, 9.999999999999996447 ) ;
#53 = DIRECTION ( 'NONE',  ( 4.275831445896959482E-31, 1.000000000000000000, 1.224646799147353454E-16 ) ) ;
#54 = CALENDAR_DATE ( 2021, 15, 11 ) ;
#55 = APPROVAL_ROLE ( '' ) ;
#56 = PERSON_AND_ORGANIZATION_ROLE ( 'design_supplier' ) ;
#57 = CALENDAR_DATE ( 2021, 15, 11 ) ;
#58 = APPROVAL_STATUS ( 'not_yet_approved' ) ;
#59 = PERSON_AND_ORGANIZATION ( #90, #27 ) ;
#60 = ORIENTED_EDGE ( 'NONE', *, *, #25, .T. ) ;
#61 = CARTESIAN_POINT ( 'NONE',  ( 1.326762908760390423E-13, 7.498798913309277092E-32, 38.00000000000000000 ) ) ;
#62 = APPROVAL ( #140, 'UNSPECIFIED' ) ;
#63 = ORIENTED_EDGE ( 'NONE', *, *, #14, .T. ) ;
#64 = CIRCLE ( 'NONE', #80, 9.999999999999992895 ) ;
#65 = FACE_OUTER_BOUND ( 'NONE', #177, .T. ) ;
#66 = FACE_OUTER_BOUND ( 'NONE', #186, .T. ) ;
#67 = CIRCLE ( 'NONE', #31, 10.00000000000000000 ) ;
#68 = DIRECTION ( 'NONE',  ( -3.491481338843133355E-15, 1.224646799147353454E-16, -1.000000000000000000 ) ) ;
#69 = FACE_OUTER_BOUND ( 'NONE', #114, .T. ) ;
#70 = DESIGN_CONTEXT ( 'detailed design', #182, 'design' ) ;
#71 = CLOSED_SHELL ( 'NONE', ( #132, #73, #95, #41 ) ) ;
#72 = PERSON_AND_ORGANIZATION ( #90, #27 ) ;
#73 = ADVANCED_FACE ( 'NONE', ( #82, #69 ), #52, .T. ) ;
#74 = DATE_AND_TIME ( #57, #102 ) ;
#75 = PERSON_AND_ORGANIZATION ( #90, #27 ) ;
#76 = CARTESIAN_POINT ( 'NONE',  ( 0.0000000000000000000, 0.0000000000000000000, 0.0000000000000000000 ) ) ;
#77 = EDGE_LOOP ( 'NONE', ( #189 ) ) ;
#78 = LOCAL_TIME ( 15, 47, 7.000000000000000000, #196 ) ;
#79 = ORIENTED_EDGE ( 'NONE', *, *, #25, .F. ) ;
#80 = AXIS2_PLACEMENT_3D ( 'NONE', #116, #152, #151 ) ;
#81 = DIRECTION ( 'NONE',  ( -3.491481338843133355E-15, 1.224646799147353454E-16, -1.000000000000000000 ) ) ;
#82 = FACE_OUTER_BOUND ( 'NONE', #200, .T. ) ;
#83 =( LENGTH_UNIT ( ) NAMED_UNIT ( * ) SI_UNIT ( .MILLI., .METRE. ) );
#84 = AXIS2_PLACEMENT_3D ( 'NONE', #183, #16, #53 ) ;
#85 = PLANE ( 'NONE',  #126 ) ;
#86 = APPROVAL ( #58, 'UNSPECIFIED' ) ;
#87 = DIRECTION ( 'NONE',  ( 1.000000000000000000, 0.0000000000000000000, 0.0000000000000000000 ) ) ;
#88 =( GEOMETRIC_REPRESENTATION_CONTEXT ( 3 ) GLOBAL_UNCERTAINTY_ASSIGNED_CONTEXT ( ( #104 ) ) GLOBAL_UNIT_ASSIGNED_CONTEXT ( ( #83, #149, #2 ) ) REPRESENTATION_CONTEXT ( 'NONE', 'WORKASPACE' ) );
#89 = APPROVAL_DATE_TIME ( #108, #62 ) ;
#90 = PERSON ( 'UNSPECIFIED', 'UNSPECIFIED', 'UNSPECIFIED', ('UNSPECIFIED'), ('UNSPECIFIED'), ('UNSPECIFIED') ) ;
#91 = DATE_TIME_ROLE ( 'classification_date' ) ;
#92 = AXIS2_PLACEMENT_3D ( 'NONE', #30, #98, #172 ) ;
#93 = PRODUCT_RELATED_PRODUCT_CATEGORY ( 'detail', '', ( #47 ) ) ;
#94 = DATE_AND_TIME ( #23, #153 ) ;
#95 = ADVANCED_FACE ( 'NONE', ( #120, #18 ), #138, .T. ) ;
#96 = CALENDAR_DATE ( 2021, 15, 11 ) ;
#97 = ORIENTED_EDGE ( 'NONE', *, *, #19, .F. ) ;
#98 = DIRECTION ( 'NONE',  ( 3.491481338843133355E-15, -1.224646799147353454E-16, 1.000000000000000000 ) ) ;
#99 = ORIENTED_EDGE ( 'NONE', *, *, #112, .F. ) ;
#100 = VERTEX_POINT ( 'NONE', #162 ) ;
#101 = CARTESIAN_POINT ( 'NONE',  ( 1.326762908760390423E-13, 9.999999999999987566, 38.00000000000000000 ) ) ;
#102 = LOCAL_TIME ( 15, 47, 7.000000000000000000, #144 ) ;
#103 = DIRECTION ( 'NONE',  ( -3.491481338843133355E-15, 1.224646799147353454E-16, -1.000000000000000000 ) ) ;
#104 = UNCERTAINTY_MEASURE_WITH_UNIT (LENGTH_MEASURE( 1.000000000000000082E-05 ), #83, 'distance_accuracy_value', 'NONE');
#105 = MANIFOLD_SOLID_BREP ( 'Corps-Déplacer/Copier1[1]', #71 ) ;
#106 = CC_DESIGN_DATE_AND_TIME_ASSIGNMENT ( #171, #91, ( #143 ) ) ;
#107 = CC_DESIGN_APPROVAL ( #62, ( #142 ) ) ;
#108 = DATE_AND_TIME ( #54, #78 ) ;
#109 = CALENDAR_DATE ( 2021, 15, 11 ) ;
#110 = PERSON_AND_ORGANIZATION_ROLE ( 'creator' ) ;
#111 = FACE_OUTER_BOUND ( 'NONE', #129, .T. ) ;
#112 = EDGE_CURVE ( 'NONE', #34, #34, #45, .T. ) ;
#113 = APPROVAL_DATE_TIME ( #28, #161 ) ;
#114 = EDGE_LOOP ( 'NONE', ( #26 ) ) ;
#115 = DIRECTION ( 'NONE',  ( -4.275831445896959482E-31, -1.000000000000000000, -1.224646799147353454E-16 ) ) ;
#116 = CARTESIAN_POINT ( 'NONE',  ( 1.326762908760390423E-13, -4.653657836759942730E-15, 38.00000000000000000 ) ) ;
#117 = DIRECTION ( 'NONE',  ( -4.275831445896959482E-31, -1.000000000000000000, -1.224646799147353454E-16 ) ) ;
#118 = DIRECTION ( 'NONE',  ( 4.275831445896960358E-31, 1.000000000000000000, 1.224646799147353700E-16 ) ) ;
#119 = DIRECTION ( 'NONE',  ( 0.0000000000000000000, 1.000000000000000000, 0.0000000000000000000 ) ) ;
#120 = FACE_OUTER_BOUND ( 'NONE', #130, .T. ) ;
#121 = CC_DESIGN_PERSON_AND_ORGANIZATION_ASSIGNMENT ( #36, #155, ( #47 ) ) ;
#122 = LOCAL_TIME ( 15, 47, 7.000000000000000000, #43 ) ;
#123 = PERSON_AND_ORGANIZATION ( #90, #27 ) ;
#124 = CC_DESIGN_PERSON_AND_ORGANIZATION_ASSIGNMENT ( #174, #159, ( #12 ) ) ;
#125 = APPROVAL_STATUS ( 'not_yet_approved' ) ;
#126 = AXIS2_PLACEMENT_3D ( 'NONE', #178, #1, #117 ) ;
#127 = CC_DESIGN_APPROVAL ( #86, ( #143 ) ) ;
#128 = DIRECTION ( 'NONE',  ( 0.0000000000000000000, 0.0000000000000000000, 1.000000000000000000 ) ) ;
#129 = EDGE_LOOP ( 'NONE', ( #147 ) ) ;
#130 = EDGE_LOOP ( 'NONE', ( #42 ) ) ;
#131 = CIRCLE ( 'NONE', #191, 9.000000000000000000 ) ;
#132 = ADVANCED_FACE ( 'NONE', ( #50 ), #85, .F. ) ;
#133 = DIRECTION ( 'NONE',  ( -3.491481338843133355E-15, 1.224646799147353454E-16, -1.000000000000000000 ) ) ;
#134 = DIRECTION ( 'NONE',  ( 4.275831445896960358E-31, 1.000000000000000000, 1.224646799147353454E-16 ) ) ;
#135 = DIRECTION ( 'NONE',  ( 4.275831445896959482E-31, 1.000000000000000000, 1.224646799147353454E-16 ) ) ;
#136 = DIRECTION ( 'NONE',  ( -3.491481338843133355E-15, 1.224646799147353454E-16, -1.000000000000000000 ) ) ;
#137 = DIRECTION ( 'NONE',  ( -3.491481338843133355E-15, 1.224646799147353454E-16, -1.000000000000000000 ) ) ;
#138 = CONICAL_SURFACE ( 'NONE', #39, 9.000000000000000000, 0.7853981633974415066 ) ;
#139 = CC_DESIGN_SECURITY_CLASSIFICATION ( #143, ( #12 ) ) ;
#140 = APPROVAL_STATUS ( 'not_yet_approved' ) ;
#141 = PERSON_AND_ORGANIZATION ( #90, #27 ) ;
#142 = PRODUCT_DEFINITION ( 'UNKNOWN', '', #12, #70 ) ;
#143 = SECURITY_CLASSIFICATION ( '', '', #38 ) ;
#144 = COORDINATED_UNIVERSAL_TIME_OFFSET ( 1, 0, .AHEAD. ) ;
#145 = AXIS2_PLACEMENT_3D ( 'NONE', #76, #128, #87 ) ;
#146 = CC_DESIGN_PERSON_AND_ORGANIZATION_ASSIGNMENT ( #123, #11, ( #143 ) ) ;
#147 = ORIENTED_EDGE ( 'NONE', *, *, #19, .T. ) ;
#148 = DIRECTION ( 'NONE',  ( 3.491481338843133355E-15, -1.224646799147353454E-16, 1.000000000000000000 ) ) ;
#149 =( NAMED_UNIT ( * ) PLANE_ANGLE_UNIT ( ) SI_UNIT ( $, .RADIAN. ) );
#150 = EDGE_CURVE ( 'NONE', #165, #165, #67, .T. ) ;
#151 = DIRECTION ( 'NONE',  ( 0.0000000000000000000, 1.000000000000000000, 0.0000000000000000000 ) ) ;
#152 = DIRECTION ( 'NONE',  ( -3.491481338843133355E-15, 1.224646799147353454E-16, -1.000000000000000000 ) ) ;
#153 = LOCAL_TIME ( 15, 47, 7.000000000000000000, #169 ) ;
#154 = CARTESIAN_POINT ( 'NONE',  ( 3.631140592396858689E-13, -1.273632671113247592E-14, 104.0000000000000000 ) ) ;
#155 = PERSON_AND_ORGANIZATION_ROLE ( 'design_owner' ) ;
#156 = CLOSED_SHELL ( 'NONE', ( #7, #49, #5 ) ) ;
#157 = CC_DESIGN_APPROVAL ( #161, ( #12 ) ) ;
#158 = EDGE_LOOP ( 'NONE', ( #99 ) ) ;
#159 = PERSON_AND_ORGANIZATION_ROLE ( 'creator' ) ;
#160 = EDGE_LOOP ( 'NONE', ( #63 ) ) ;
#161 = APPROVAL ( #125, 'UNSPECIFIED' ) ;
#162 = CARTESIAN_POINT ( 'NONE',  ( 3.631140592396858689E-13, 8.999999999999987566, 104.0000000000000000 ) ) ;
#163 = CYLINDRICAL_SURFACE ( 'NONE', #166, 9.999999999999991118 ) ;
#164 = VERTEX_POINT ( 'NONE', #167 ) ;
#165 = VERTEX_POINT ( 'NONE', #20 ) ;
#166 = AXIS2_PLACEMENT_3D ( 'NONE', #203, #137, #134 ) ;
#167 = CARTESIAN_POINT ( 'NONE',  ( 8.551737199941402409E-31, 9.999999999999987566, 2.449314880994017066E-16 ) ) ;
#168 = APPROVAL_PERSON_ORGANIZATION ( #72, #62, #187 ) ;
#169 = COORDINATED_UNIVERSAL_TIME_OFFSET ( 1, 0, .AHEAD. ) ;
#170 = MANIFOLD_SOLID_BREP ( 'Corps-Déplacer/Copier1[2]', #156 ) ;
#171 = DATE_AND_TIME ( #109, #175 ) ;
#172 = DIRECTION ( 'NONE',  ( -4.275831445896959482E-31, -1.000000000000000000, -1.224646799147353454E-16 ) ) ;
#173 = APPLICATION_CONTEXT ( 'configuration controlled 3d designs of mechanical parts and assemblies' ) ;
#174 = PERSON_AND_ORGANIZATION ( #90, #27 ) ;
#175 = LOCAL_TIME ( 15, 47, 7.000000000000000000, #184 ) ;
#176 = PLANE ( 'NONE',  #92 ) ;
#177 = EDGE_LOOP ( 'NONE', ( #48 ) ) ;
#178 = CARTESIAN_POINT ( 'NONE',  ( 1.326762908760390423E-13, 7.498798913309277092E-32, 38.00000000000000000 ) ) ;
#179 = DIRECTION ( 'NONE',  ( 0.0000000000000000000, 1.000000000000000000, 0.0000000000000000000 ) ) ;
#180 = VERTEX_POINT ( 'NONE', #190 ) ;
#181 = CARTESIAN_POINT ( 'NONE',  ( 3.596225779008426472E-13, -1.261386203121773761E-14, 102.9999999999999858 ) ) ;
#182 = APPLICATION_CONTEXT ( 'configuration controlled 3d designs of mechanical parts and assemblies' ) ;
#183 = CARTESIAN_POINT ( 'NONE',  ( 3.631140592396858689E-13, 6.748919021978343909E-32, 104.0000000000000000 ) ) ;
#184 = COORDINATED_UNIVERSAL_TIME_OFFSET ( 1, 0, .AHEAD. ) ;
#185 = APPROVAL_ROLE ( '' ) ;
#186 = EDGE_LOOP ( 'NONE', ( #97 ) ) ;
#187 = APPROVAL_ROLE ( '' ) ;
#188 = APPROVAL_PERSON_ORGANIZATION ( #75, #86, #55 ) ;
#189 = ORIENTED_EDGE ( 'NONE', *, *, #112, .T. ) ;
#190 = CARTESIAN_POINT ( 'NONE',  ( 1.326762908760390423E-13, 9.999999999999987566, 38.00000000000000000 ) ) ;
#191 = AXIS2_PLACEMENT_3D ( 'NONE', #202, #133, #32 ) ;
#192 = CARTESIAN_POINT ( 'NONE',  ( 1.326762908760390423E-13, -4.653657836759942730E-15, 38.00000000000000000 ) ) ;
#193 = DIRECTION ( 'NONE',  ( 0.0000000000000000000, 1.000000000000000000, 0.0000000000000000000 ) ) ;
#194 = DIRECTION ( 'NONE',  ( -3.491481338843133355E-15, 1.224646799147353454E-16, -1.000000000000000000 ) ) ;
#195 = CARTESIAN_POINT ( 'NONE',  ( 0.0000000000000000000, 0.0000000000000000000, 0.0000000000000000000 ) ) ;
#196 = COORDINATED_UNIVERSAL_TIME_OFFSET ( 1, 0, .AHEAD. ) ;
#197 = CIRCLE ( 'NONE', #21, 9.999999999999987566 ) ;
#198 = CC_DESIGN_DATE_AND_TIME_ASSIGNMENT ( #94, #10, ( #142 ) ) ;
#199 = APPROVAL_DATE_TIME ( #74, #86 ) ;
#200 = EDGE_LOOP ( 'NONE', ( #79 ) ) ;
#201 = APPLICATION_PROTOCOL_DEFINITION ( 'international standard', 'config_control_design', 1994, #182 ) ;
#202 = CARTESIAN_POINT ( 'NONE',  ( 3.631140592396858689E-13, -1.273632671113247592E-14, 104.0000000000000000 ) ) ;
#203 = CARTESIAN_POINT ( 'NONE',  ( 0.0000000000000000000, 0.0000000000000000000, 0.0000000000000000000 ) ) ;
ENDSEC;
END-ISO-10303-21;
