ISO-10303-21;
HEADER;
FILE_DESCRIPTION (( 'STEP AP203' ),
    '1' );
FILE_NAME ('57251.step',
    '2021-11-15T14:47:06',
    ( '' ),
    ( '' ),
    'SwSTEP 2.0',
    'SolidWorks 2019',
    '' );
FILE_SCHEMA (( 'CONFIG_CONTROL_DESIGN' ));
ENDSEC;

DATA;
#1 = CC_DESIGN_PERSON_AND_ORGANIZATION_ASSIGNMENT ( #29, #85, ( #189 ) ) ;
#2 = FACE_BOUND ( 'NONE', #41, .T. ) ;
#3 = CC_DESIGN_APPROVAL ( #198, ( #160 ) ) ;
#4 = VERTEX_POINT ( 'NONE', #191 ) ;
#5 = LOCAL_TIME ( 15, 47, 6.000000000000000000, #9 ) ;
#6 = ADVANCED_FACE ( 'NONE', ( #202, #72 ), #109, .T. ) ;
#7 = PERSON_AND_ORGANIZATION ( #178, #22 ) ;
#8 = CIRCLE ( 'NONE', #157, 7.500000000000000888 ) ;
#9 = COORDINATED_UNIVERSAL_TIME_OFFSET ( 1, 0, .AHEAD. ) ;
#10 = PRODUCT_RELATED_PRODUCT_CATEGORY ( 'detail', '', ( #138 ) ) ;
#11 = LOCAL_TIME ( 15, 47, 6.000000000000000000, #200 ) ;
#12 = ORIENTED_EDGE ( 'NONE', *, *, #190, .F. ) ;
#13 = FACE_OUTER_BOUND ( 'NONE', #156, .T. ) ;
#14 = CARTESIAN_POINT ( 'NONE',  ( 3.212162831735682182E-13, -1.126675055215564941E-14, 92.00000000000000000 ) ) ;
#15 = CIRCLE ( 'NONE', #177, 7.999999999999992895 ) ;
#16 = PLANE ( 'NONE',  #36 ) ;
#17 = EDGE_CURVE ( 'NONE', #66, #66, #8, .T. ) ;
#18 = DIRECTION ( 'NONE',  ( 0.0000000000000000000, 1.000000000000000000, 0.0000000000000000000 ) ) ;
#19 = ADVANCED_BREP_SHAPE_REPRESENTATION ( '57251', ( #165, #92, #20 ), #111 ) ;
#20 = AXIS2_PLACEMENT_3D ( 'NONE', #135, #185, #101 ) ;
#21 = DIRECTION ( 'NONE',  ( -4.275831445896958607E-31, -1.000000000000000000, -1.224646799147353207E-16 ) ) ;
#22 = ORGANIZATION ( 'UNSPECIFIED', 'UNSPECIFIED', '' ) ;
#23 = CALENDAR_DATE ( 2021, 15, 11 ) ;
#24 = PERSON_AND_ORGANIZATION ( #178, #22 ) ;
#25 = AXIS2_PLACEMENT_3D ( 'NONE', #48, #194, #50 ) ;
#26 = CC_DESIGN_PERSON_AND_ORGANIZATION_ASSIGNMENT ( #81, #149, ( #160 ) ) ;
#27 =( NAMED_UNIT ( * ) PLANE_ANGLE_UNIT ( ) SI_UNIT ( $, .RADIAN. ) );
#28 = APPROVAL_DATE_TIME ( #37, #126 ) ;
#29 = PERSON_AND_ORGANIZATION ( #178, #22 ) ;
#30 = APPROVAL ( #68, 'UNSPECIFIED' ) ;
#31 = EDGE_LOOP ( 'NONE', ( #153 ) ) ;
#32 =( LENGTH_UNIT ( ) NAMED_UNIT ( * ) SI_UNIT ( .MILLI., .METRE. ) );
#33 = CARTESIAN_POINT ( 'NONE',  ( 1.117274028429802674E-13, 5.999039130647421673E-32, 32.00000000000000000 ) ) ;
#34 = CARTESIAN_POINT ( 'NONE',  ( -2.993089849063182893E-30, 1.049834596690177521E-31, -8.572550039906307412E-16 ) ) ;
#35 = EDGE_CURVE ( 'NONE', #61, #61, #15, .T. ) ;
#36 = AXIS2_PLACEMENT_3D ( 'NONE', #73, #94, #139 ) ;
#37 = DATE_AND_TIME ( #52, #45 ) ;
#38 = CALENDAR_DATE ( 2021, 15, 11 ) ;
#39 = PERSON_AND_ORGANIZATION ( #178, #22 ) ;
#40 = DATE_TIME_ROLE ( 'creation_date' ) ;
#41 = EDGE_LOOP ( 'NONE', ( #105 ) ) ;
#42 = EDGE_LOOP ( 'NONE', ( #125 ) ) ;
#43 = APPLICATION_CONTEXT ( 'configuration controlled 3d designs of mechanical parts and assemblies' ) ;
#44 = FACE_OUTER_BOUND ( 'NONE', #107, .T. ) ;
#45 = LOCAL_TIME ( 15, 47, 6.000000000000000000, #170 ) ;
#46 = CALENDAR_DATE ( 2021, 15, 11 ) ;
#47 = VERTEX_POINT ( 'NONE', #114 ) ;
#48 = CARTESIAN_POINT ( 'NONE',  ( 3.194705425041467083E-13, -1.120551821219828183E-14, 91.50000000000000000 ) ) ;
#49 = PLANE ( 'NONE',  #168 ) ;
#50 = DIRECTION ( 'NONE',  ( 0.0000000000000000000, 1.000000000000000000, 0.0000000000000000000 ) ) ;
#51 = APPROVAL_STATUS ( 'not_yet_approved' ) ;
#52 = CALENDAR_DATE ( 2021, 15, 11 ) ;
#53 = COORDINATED_UNIVERSAL_TIME_OFFSET ( 1, 0, .AHEAD. ) ;
#54 = DIRECTION ( 'NONE',  ( -3.491481338843133355E-15, 1.224646799147353207E-16, -1.000000000000000000 ) ) ;
#55 = AXIS2_PLACEMENT_3D ( 'NONE', #137, #54, #158 ) ;
#56 = ADVANCED_FACE ( 'NONE', ( #13 ), #16, .F. ) ;
#57 = EDGE_LOOP ( 'NONE', ( #90 ) ) ;
#58 = DIRECTION ( 'NONE',  ( 4.275831445896958607E-31, 1.000000000000000000, 1.224646799147353207E-16 ) ) ;
#59 = DIRECTION ( 'NONE',  ( -3.491481338843133355E-15, 1.224646799147353207E-16, -1.000000000000000000 ) ) ;
#60 = APPROVAL_PERSON_ORGANIZATION ( #24, #198, #120 ) ;
#61 = VERTEX_POINT ( 'NONE', #117 ) ;
#62 = ADVANCED_FACE ( 'NONE', ( #143, #2 ), #83, .T. ) ;
#63 = FACE_OUTER_BOUND ( 'NONE', #57, .T. ) ;
#64 = CC_DESIGN_APPROVAL ( #126, ( #131 ) ) ;
#65 = FACE_OUTER_BOUND ( 'NONE', #201, .T. ) ;
#66 = VERTEX_POINT ( 'NONE', #195 ) ;
#67 = ADVANCED_FACE ( 'NONE', ( #44 ), #112, .F. ) ;
#68 = APPROVAL_STATUS ( 'not_yet_approved' ) ;
#69 = AXIS2_PLACEMENT_3D ( 'NONE', #75, #141, #58 ) ;
#70 = CC_DESIGN_PERSON_AND_ORGANIZATION_ASSIGNMENT ( #7, #151, ( #189 ) ) ;
#71 = PERSON_AND_ORGANIZATION_ROLE ( 'creator' ) ;
#72 = FACE_OUTER_BOUND ( 'NONE', #186, .T. ) ;
#73 = CARTESIAN_POINT ( 'NONE',  ( 1.117274028429802674E-13, 5.999039130647421673E-32, 32.00000000000000000 ) ) ;
#74 = EDGE_LOOP ( 'NONE', ( #173 ) ) ;
#75 = CARTESIAN_POINT ( 'NONE',  ( 3.212162831735682182E-13, 5.624099184981950155E-32, 92.00000000000000000 ) ) ;
#76 = CIRCLE ( 'NONE', #106, 7.999999999999989342 ) ;
#77 = CARTESIAN_POINT ( 'NONE',  ( 1.117274028429802674E-13, -3.918869757271530263E-15, 32.00000000000000000 ) ) ;
#78 = APPLICATION_CONTEXT ( 'configuration controlled 3d designs of mechanical parts and assemblies' ) ;
#79 = FACE_OUTER_BOUND ( 'NONE', #187, .T. ) ;
#80 = DIRECTION ( 'NONE',  ( 4.275831445896959482E-31, 1.000000000000000000, 1.224646799147353454E-16 ) ) ;
#81 = PERSON_AND_ORGANIZATION ( #178, #22 ) ;
#82 = EDGE_CURVE ( 'NONE', #145, #145, #121, .T. ) ;
#83 = CONICAL_SURFACE ( 'NONE', #203, 7.500000000000000888, 0.7853981633974473908 ) ;
#84 = LOCAL_TIME ( 15, 47, 6.000000000000000000, #127 ) ;
#85 = PERSON_AND_ORGANIZATION_ROLE ( 'creator' ) ;
#86 = ORIENTED_EDGE ( 'NONE', *, *, #35, .T. ) ;
#87 = DIRECTION ( 'NONE',  ( -3.491481338843133355E-15, 1.224646799147353207E-16, -1.000000000000000000 ) ) ;
#88 = APPROVAL_DATE_TIME ( #142, #198 ) ;
#89 = CC_DESIGN_DATE_AND_TIME_ASSIGNMENT ( #132, #196, ( #160 ) ) ;
#90 = ORIENTED_EDGE ( 'NONE', *, *, #35, .F. ) ;
#91 = APPROVAL_PERSON_ORGANIZATION ( #104, #30, #182 ) ;
#92 = MANIFOLD_SOLID_BREP ( 'Corps-Déplacer/Copier1[2]', #144 ) ;
#93 = ORIENTED_EDGE ( 'NONE', *, *, #17, .F. ) ;
#94 = DIRECTION ( 'NONE',  ( 3.491481338843133355E-15, -1.224646799147353207E-16, 1.000000000000000000 ) ) ;
#95 = DIRECTION ( 'NONE',  ( -3.491481338843133355E-15, 1.224646799147353207E-16, -1.000000000000000000 ) ) ;
#96 = DIRECTION ( 'NONE',  ( 3.491481338843133355E-15, -1.224646799147353207E-16, 1.000000000000000000 ) ) ;
#97 = FACE_OUTER_BOUND ( 'NONE', #31, .T. ) ;
#98 = CC_DESIGN_APPROVAL ( #30, ( #189 ) ) ;
#99 = APPROVAL_DATE_TIME ( #172, #30 ) ;
#100 = AXIS2_PLACEMENT_3D ( 'NONE', #130, #146, #181 ) ;
#101 = DIRECTION ( 'NONE',  ( 1.000000000000000000, 0.0000000000000000000, 0.0000000000000000000 ) ) ;
#102 = CC_DESIGN_PERSON_AND_ORGANIZATION_ASSIGNMENT ( #39, #169, ( #138 ) ) ;
#103 = PRODUCT_DEFINITION_SHAPE ( 'NONE', 'NONE',  #131 ) ;
#104 = PERSON_AND_ORGANIZATION ( #178, #22 ) ;
#105 = ORIENTED_EDGE ( 'NONE', *, *, #17, .T. ) ;
#106 = AXIS2_PLACEMENT_3D ( 'NONE', #34, #95, #80 ) ;
#107 = EDGE_LOOP ( 'NONE', ( #93 ) ) ;
#108 = EDGE_CURVE ( 'NONE', #4, #4, #174, .T. ) ;
#109 = CYLINDRICAL_SURFACE ( 'NONE', #55, 7.999999999999996447 ) ;
#110 = ORIENTED_EDGE ( 'NONE', *, *, #108, .T. ) ;
#111 =( GEOMETRIC_REPRESENTATION_CONTEXT ( 3 ) GLOBAL_UNCERTAINTY_ASSIGNED_CONTEXT ( ( #179 ) ) GLOBAL_UNIT_ASSIGNED_CONTEXT ( ( #32, #27, #150 ) ) REPRESENTATION_CONTEXT ( 'NONE', 'WORKASPACE' ) );
#112 = PLANE ( 'NONE',  #69 ) ;
#113 = CC_DESIGN_PERSON_AND_ORGANIZATION_ASSIGNMENT ( #183, #71, ( #131 ) ) ;
#114 = CARTESIAN_POINT ( 'NONE',  ( 4.275753076543793505E-31, 7.999999999999989342, 1.224624353272506412E-16 ) ) ;
#115 = AXIS2_PLACEMENT_3D ( 'NONE', #77, #193, #148 ) ;
#116 = CARTESIAN_POINT ( 'NONE',  ( -1.496544924531591446E-30, 5.249172983450887604E-32, -4.286275019953153706E-16 ) ) ;
#117 = CARTESIAN_POINT ( 'NONE',  ( 1.117274028429802674E-13, 7.999999999999989342, 32.00000000000000000 ) ) ;
#118 = CC_DESIGN_SECURITY_CLASSIFICATION ( #160, ( #189 ) ) ;
#119 = APPROVAL_ROLE ( '' ) ;
#120 = APPROVAL_ROLE ( '' ) ;
#121 = CIRCLE ( 'NONE', #115, 7.999999999999992895 ) ;
#122 = DATE_AND_TIME ( #23, #128 ) ;
#123 = ORIENTED_EDGE ( 'NONE', *, *, #82, .T. ) ;
#124 = CARTESIAN_POINT ( 'NONE',  ( 3.212162831735682182E-13, -1.126675055215564941E-14, 92.00000000000000000 ) ) ;
#125 = ORIENTED_EDGE ( 'NONE', *, *, #108, .F. ) ;
#126 = APPROVAL ( #166, 'UNSPECIFIED' ) ;
#127 = COORDINATED_UNIVERSAL_TIME_OFFSET ( 1, 0, .AHEAD. ) ;
#128 = LOCAL_TIME ( 15, 47, 6.000000000000000000, #53 ) ;
#129 = APPROVAL_PERSON_ORGANIZATION ( #199, #126, #119 ) ;
#130 = CARTESIAN_POINT ( 'NONE',  ( 0.0000000000000000000, 0.0000000000000000000, 0.0000000000000000000 ) ) ;
#131 = PRODUCT_DEFINITION ( 'UNKNOWN', '', #189, #161 ) ;
#132 = DATE_AND_TIME ( #38, #11 ) ;
#133 = APPLICATION_PROTOCOL_DEFINITION ( 'international standard', 'config_control_design', 1994, #43 ) ;
#134 = APPLICATION_PROTOCOL_DEFINITION ( 'international standard', 'config_control_design', 1994, #78 ) ;
#135 = CARTESIAN_POINT ( 'NONE',  ( 0.0000000000000000000, 0.0000000000000000000, 0.0000000000000000000 ) ) ;
#136 = SECURITY_CLASSIFICATION_LEVEL ( 'unclassified' ) ;
#137 = CARTESIAN_POINT ( 'NONE',  ( 0.0000000000000000000, 0.0000000000000000000, 0.0000000000000000000 ) ) ;
#138 = PRODUCT ( '57251', '57251', '', ( #197 ) ) ;
#139 = DIRECTION ( 'NONE',  ( -4.275831445896958607E-31, -1.000000000000000000, -1.224646799147353207E-16 ) ) ;
#140 = CARTESIAN_POINT ( 'NONE',  ( 1.117274028429802674E-13, -3.918869757271530263E-15, 32.00000000000000000 ) ) ;
#141 = DIRECTION ( 'NONE',  ( -3.491481338843133355E-15, 1.224646799147353207E-16, -1.000000000000000000 ) ) ;
#142 = DATE_AND_TIME ( #46, #84 ) ;
#143 = FACE_OUTER_BOUND ( 'NONE', #42, .T. ) ;
#144 = CLOSED_SHELL ( 'NONE', ( #147, #184, #171 ) ) ;
#145 = VERTEX_POINT ( 'NONE', #159 ) ;
#146 = DIRECTION ( 'NONE',  ( -3.491481338843133355E-15, 1.224646799147353207E-16, -1.000000000000000000 ) ) ;
#147 = ADVANCED_FACE ( 'NONE', ( #97 ), #49, .F. ) ;
#148 = DIRECTION ( 'NONE',  ( 0.0000000000000000000, 1.000000000000000000, 0.0000000000000000000 ) ) ;
#149 = PERSON_AND_ORGANIZATION_ROLE ( 'classification_officer' ) ;
#150 =( NAMED_UNIT ( * ) SI_UNIT ( $, .STERADIAN. ) SOLID_ANGLE_UNIT ( ) );
#151 = PERSON_AND_ORGANIZATION_ROLE ( 'design_supplier' ) ;
#152 = CC_DESIGN_DATE_AND_TIME_ASSIGNMENT ( #122, #40, ( #131 ) ) ;
#153 = ORIENTED_EDGE ( 'NONE', *, *, #190, .T. ) ;
#154 = DIRECTION ( 'NONE',  ( -3.491481338843133355E-15, 1.224646799147353207E-16, -1.000000000000000000 ) ) ;
#155 = SHAPE_DEFINITION_REPRESENTATION ( #103, #19 ) ;
#156 = EDGE_LOOP ( 'NONE', ( #123 ) ) ;
#157 = AXIS2_PLACEMENT_3D ( 'NONE', #14, #87, #175 ) ;
#158 = DIRECTION ( 'NONE',  ( 4.275831445896958607E-31, 1.000000000000000000, 1.224646799147353207E-16 ) ) ;
#159 = CARTESIAN_POINT ( 'NONE',  ( 1.117274028429802674E-13, 7.999999999999989342, 32.00000000000000000 ) ) ;
#160 = SECURITY_CLASSIFICATION ( '', '', #136 ) ;
#161 = DESIGN_CONTEXT ( 'detailed design', #43, 'design' ) ;
#162 = PLANE ( 'NONE',  #192 ) ;
#163 = CLOSED_SHELL ( 'NONE', ( #56, #6, #62, #67 ) ) ;
#164 = CYLINDRICAL_SURFACE ( 'NONE', #100, 7.999999999999991118 ) ;
#165 = MANIFOLD_SOLID_BREP ( 'Corps-Déplacer/Copier1[1]', #163 ) ;
#166 = APPROVAL_STATUS ( 'not_yet_approved' ) ;
#167 = CALENDAR_DATE ( 2021, 15, 11 ) ;
#168 = AXIS2_PLACEMENT_3D ( 'NONE', #116, #96, #180 ) ;
#169 = PERSON_AND_ORGANIZATION_ROLE ( 'design_owner' ) ;
#170 = COORDINATED_UNIVERSAL_TIME_OFFSET ( 1, 0, .AHEAD. ) ;
#171 = ADVANCED_FACE ( 'NONE', ( #63 ), #162, .T. ) ;
#172 = DATE_AND_TIME ( #167, #5 ) ;
#173 = ORIENTED_EDGE ( 'NONE', *, *, #82, .F. ) ;
#174 = CIRCLE ( 'NONE', #25, 8.000000000000000000 ) ;
#175 = DIRECTION ( 'NONE',  ( 0.0000000000000000000, 1.000000000000000000, 0.0000000000000000000 ) ) ;
#176 = DIRECTION ( 'NONE',  ( 3.491481338843133355E-15, -1.224646799147353207E-16, 1.000000000000000000 ) ) ;
#177 = AXIS2_PLACEMENT_3D ( 'NONE', #140, #154, #18 ) ;
#178 = PERSON ( 'UNSPECIFIED', 'UNSPECIFIED', 'UNSPECIFIED', ('UNSPECIFIED'), ('UNSPECIFIED'), ('UNSPECIFIED') ) ;
#179 = UNCERTAINTY_MEASURE_WITH_UNIT (LENGTH_MEASURE( 1.000000000000000082E-05 ), #32, 'distance_accuracy_value', 'NONE');
#180 = DIRECTION ( 'NONE',  ( -4.275831445896958607E-31, -1.000000000000000000, -1.224646799147353207E-16 ) ) ;
#181 = DIRECTION ( 'NONE',  ( 4.275831445896957731E-31, 1.000000000000000000, 1.224646799147353454E-16 ) ) ;
#182 = APPROVAL_ROLE ( '' ) ;
#183 = PERSON_AND_ORGANIZATION ( #178, #22 ) ;
#184 = ADVANCED_FACE ( 'NONE', ( #65, #79 ), #164, .T. ) ;
#185 = DIRECTION ( 'NONE',  ( 0.0000000000000000000, 0.0000000000000000000, 1.000000000000000000 ) ) ;
#186 = EDGE_LOOP ( 'NONE', ( #110 ) ) ;
#187 = EDGE_LOOP ( 'NONE', ( #86 ) ) ;
#188 = DIRECTION ( 'NONE',  ( 0.0000000000000000000, 1.000000000000000000, 0.0000000000000000000 ) ) ;
#189 = PRODUCT_DEFINITION_FORMATION_WITH_SPECIFIED_SOURCE ( 'ANY', '', #138, .NOT_KNOWN. ) ;
#190 = EDGE_CURVE ( 'NONE', #47, #47, #76, .T. ) ;
#191 = CARTESIAN_POINT ( 'NONE',  ( 3.194705425041467083E-13, 7.999999999999989342, 91.50000000000000000 ) ) ;
#192 = AXIS2_PLACEMENT_3D ( 'NONE', #33, #176, #21 ) ;
#193 = DIRECTION ( 'NONE',  ( -3.491481338843133355E-15, 1.224646799147353207E-16, -1.000000000000000000 ) ) ;
#194 = DIRECTION ( 'NONE',  ( -3.491481338843133355E-15, 1.224646799147353207E-16, -1.000000000000000000 ) ) ;
#195 = CARTESIAN_POINT ( 'NONE',  ( 3.212162831735682182E-13, 7.499999999999989342, 92.00000000000000000 ) ) ;
#196 = DATE_TIME_ROLE ( 'classification_date' ) ;
#197 = MECHANICAL_CONTEXT ( 'NONE', #78, 'mechanical' ) ;
#198 = APPROVAL ( #51, 'UNSPECIFIED' ) ;
#199 = PERSON_AND_ORGANIZATION ( #178, #22 ) ;
#200 = COORDINATED_UNIVERSAL_TIME_OFFSET ( 1, 0, .AHEAD. ) ;
#201 = EDGE_LOOP ( 'NONE', ( #12 ) ) ;
#202 = FACE_OUTER_BOUND ( 'NONE', #74, .T. ) ;
#203 = AXIS2_PLACEMENT_3D ( 'NONE', #124, #59, #188 ) ;
ENDSEC;
END-ISO-10303-21;
