ISO-10303-21;
HEADER;
FILE_DESCRIPTION (( 'STEP AP203' ),
    '1' );
FILE_NAME ('57249.step',
    '2021-11-15T14:47:06',
    ( '' ),
    ( '' ),
    'SwSTEP 2.0',
    'SolidWorks 2019',
    '' );
FILE_SCHEMA (( 'CONFIG_CONTROL_DESIGN' ));
ENDSEC;

DATA;
#1 = APPROVAL ( #98, 'UNSPECIFIED' ) ;
#2 = DIRECTION ( 'NONE',  ( -3.491481338843133355E-15, 1.224646799147353207E-16, -1.000000000000000000 ) ) ;
#3 = CIRCLE ( 'NONE', #21, 7.000000000000000000 ) ;
#4 = EDGE_CURVE ( 'NONE', #112, #112, #133, .T. ) ;
#5 = MECHANICAL_CONTEXT ( 'NONE', #26, 'mechanical' ) ;
#6 = CARTESIAN_POINT ( 'NONE',  ( 9.077851480992146724E-14, -3.184081677783118191E-15, 26.00000000000000000 ) ) ;
#7 = AXIS2_PLACEMENT_3D ( 'NONE', #174, #88, #111 ) ;
#8 = FACE_OUTER_BOUND ( 'NONE', #10, .T. ) ;
#9 = DIRECTION ( 'NONE',  ( -4.275831445896958607E-31, -1.000000000000000000, -1.224646799147353207E-16 ) ) ;
#10 = EDGE_LOOP ( 'NONE', ( #194 ) ) ;
#11 = PRODUCT_DEFINITION_SHAPE ( 'NONE', 'NONE',  #71 ) ;
#12 = VERTEX_POINT ( 'NONE', #83 ) ;
#13 = ADVANCED_FACE ( 'NONE', ( #134 ), #53, .F. ) ;
#14 = DIRECTION ( 'NONE',  ( 3.491481338843133355E-15, -1.224646799147353207E-16, 1.000000000000000000 ) ) ;
#15 = APPROVAL_ROLE ( '' ) ;
#16 = CARTESIAN_POINT ( 'NONE',  ( -1.282753352236743429E-30, 4.499293092119958252E-32, -3.673951620379476979E-16 ) ) ;
#17 = DATE_AND_TIME ( #164, #145 ) ;
#18 = ORIENTED_EDGE ( 'NONE', *, *, #124, .F. ) ;
#19 = CALENDAR_DATE ( 2021, 15, 11 ) ;
#20 = CIRCLE ( 'NONE', #131, 6.999999999999989342 ) ;
#21 = AXIS2_PLACEMENT_3D ( 'NONE', #203, #2, #54 ) ;
#22 = EDGE_LOOP ( 'NONE', ( #35 ) ) ;
#23 = ADVANCED_FACE ( 'NONE', ( #183 ), #67, .F. ) ;
#24 = LOCAL_TIME ( 15, 47, 6.000000000000000000, #201 ) ;
#25 = PLANE ( 'NONE',  #147 ) ;
#26 = APPLICATION_CONTEXT ( 'configuration controlled 3d designs of mechanical parts and assemblies' ) ;
#27 = APPROVAL_PERSON_ORGANIZATION ( #62, #64, #116 ) ;
#28 = CALENDAR_DATE ( 2021, 15, 11 ) ;
#29 = FACE_OUTER_BOUND ( 'NONE', #33, .T. ) ;
#30 = DIRECTION ( 'NONE',  ( 4.275831445896958607E-31, 1.000000000000000000, 1.224646799147353207E-16 ) ) ;
#31 = PERSON_AND_ORGANIZATION ( #78, #120 ) ;
#32 = PERSON_AND_ORGANIZATION ( #78, #120 ) ;
#33 = EDGE_LOOP ( 'NONE', ( #96 ) ) ;
#34 = CC_DESIGN_PERSON_AND_ORGANIZATION_ASSIGNMENT ( #46, #51, ( #166 ) ) ;
#35 = ORIENTED_EDGE ( 'NONE', *, *, #97, .T. ) ;
#36 = CIRCLE ( 'NONE', #191, 6.999999999999992895 ) ;
#37 = SHAPE_DEFINITION_REPRESENTATION ( #11, #95 ) ;
#38 = ORIENTED_EDGE ( 'NONE', *, *, #4, .T. ) ;
#39 = AXIS2_PLACEMENT_3D ( 'NONE', #153, #40, #168 ) ;
#40 = DIRECTION ( 'NONE',  ( -3.491481338843133355E-15, 1.224646799147353207E-16, -1.000000000000000000 ) ) ;
#41 = APPROVAL_PERSON_ORGANIZATION ( #141, #1, #148 ) ;
#42 = DIRECTION ( 'NONE',  ( -4.275831445896958607E-31, -1.000000000000000000, -1.224646799147353207E-16 ) ) ;
#43 = APPROVAL_DATE_TIME ( #163, #196 ) ;
#44 = DIRECTION ( 'NONE',  ( -3.491481338843133355E-15, 1.224646799147353207E-16, -1.000000000000000000 ) ) ;
#45 = PRODUCT_RELATED_PRODUCT_CATEGORY ( 'detail', '', ( #85 ) ) ;
#46 = PERSON_AND_ORGANIZATION ( #78, #120 ) ;
#47 = CARTESIAN_POINT ( 'NONE',  ( 0.0000000000000000000, 0.0000000000000000000, 0.0000000000000000000 ) ) ;
#48 = VERTEX_POINT ( 'NONE', #60 ) ;
#49 = LOCAL_TIME ( 15, 47, 6.000000000000000000, #114 ) ;
#50 = PERSON_AND_ORGANIZATION ( #78, #120 ) ;
#51 = PERSON_AND_ORGANIZATION_ROLE ( 'creator' ) ;
#52 = APPROVAL_STATUS ( 'not_yet_approved' ) ;
#53 = PLANE ( 'NONE',  #189 ) ;
#54 = DIRECTION ( 'NONE',  ( 0.0000000000000000000, 1.000000000000000000, 0.0000000000000000000 ) ) ;
#55 = CARTESIAN_POINT ( 'NONE',  ( 2.897929511239800811E-13, 4.874219293651022994E-32, 83.00000000000000000 ) ) ;
#56 = CARTESIAN_POINT ( 'NONE',  ( 9.077851480992146724E-14, 6.999999999999989342, 26.00000000000000000 ) ) ;
#57 = CARTESIAN_POINT ( 'NONE',  ( 9.077851480992146724E-14, 5.249159239316491775E-32, 26.00000000000000000 ) ) ;
#58 = CC_DESIGN_SECURITY_CLASSIFICATION ( #73, ( #166 ) ) ;
#59 = PERSON_AND_ORGANIZATION_ROLE ( 'classification_officer' ) ;
#60 = CARTESIAN_POINT ( 'NONE',  ( 9.077851480992146724E-14, 6.999999999999989342, 26.00000000000000000 ) ) ;
#61 = PERSON_AND_ORGANIZATION_ROLE ( 'creator' ) ;
#62 = PERSON_AND_ORGANIZATION ( #78, #120 ) ;
#63 = AXIS2_PLACEMENT_3D ( 'NONE', #121, #100, #167 ) ;
#64 = APPROVAL ( #52, 'UNSPECIFIED' ) ;
#65 = CARTESIAN_POINT ( 'NONE',  ( 2.897929511239800811E-13, 6.499999999999990230, 83.00000000000000000 ) ) ;
#66 = VERTEX_POINT ( 'NONE', #136 ) ;
#67 = PLANE ( 'NONE',  #63 ) ;
#68 = CC_DESIGN_APPROVAL ( #196, ( #71 ) ) ;
#69 =( LENGTH_UNIT ( ) NAMED_UNIT ( * ) SI_UNIT ( .MILLI., .METRE. ) );
#70 = DATE_TIME_ROLE ( 'classification_date' ) ;
#71 = PRODUCT_DEFINITION ( 'UNKNOWN', '', #166, #187 ) ;
#72 = CARTESIAN_POINT ( 'NONE',  ( 9.077851480992146724E-14, -3.184081677783118191E-15, 26.00000000000000000 ) ) ;
#73 = SECURITY_CLASSIFICATION ( '', '', #175 ) ;
#74 = PLANE ( 'NONE',  #182 ) ;
#75 = ORIENTED_EDGE ( 'NONE', *, *, #97, .F. ) ;
#76 = CC_DESIGN_DATE_AND_TIME_ASSIGNMENT ( #195, #146, ( #71 ) ) ;
#77 = EDGE_LOOP ( 'NONE', ( #90 ) ) ;
#78 = PERSON ( 'UNSPECIFIED', 'UNSPECIFIED', 'UNSPECIFIED', ('UNSPECIFIED'), ('UNSPECIFIED'), ('UNSPECIFIED') ) ;
#79 = APPLICATION_CONTEXT ( 'configuration controlled 3d designs of mechanical parts and assemblies' ) ;
#80 = MANIFOLD_SOLID_BREP ( 'Corps-Déplacer/Copier1[2]', #180 ) ;
#81 =( GEOMETRIC_REPRESENTATION_CONTEXT ( 3 ) GLOBAL_UNCERTAINTY_ASSIGNED_CONTEXT ( ( #102 ) ) GLOBAL_UNIT_ASSIGNED_CONTEXT ( ( #69, #190, #127 ) ) REPRESENTATION_CONTEXT ( 'NONE', 'WORKASPACE' ) );
#82 = AXIS2_PLACEMENT_3D ( 'NONE', #192, #188, #109 ) ;
#83 = CARTESIAN_POINT ( 'NONE',  ( 2.880472104545584703E-13, 6.999999999999989342, 82.50000000000000000 ) ) ;
#84 = CONICAL_SURFACE ( 'NONE', #82, 6.500000000000000888, 0.7853981633974473908 ) ;
#85 = PRODUCT ( '57249', '57249', '', ( #5 ) ) ;
#86 = DATE_AND_TIME ( #28, #103 ) ;
#87 = ORIENTED_EDGE ( 'NONE', *, *, #4, .F. ) ;
#88 = DIRECTION ( 'NONE',  ( 0.0000000000000000000, 0.0000000000000000000, 1.000000000000000000 ) ) ;
#89 = CYLINDRICAL_SURFACE ( 'NONE', #138, 6.999999999999996447 ) ;
#90 = ORIENTED_EDGE ( 'NONE', *, *, #162, .F. ) ;
#91 = APPLICATION_PROTOCOL_DEFINITION ( 'international standard', 'config_control_design', 1994, #26 ) ;
#92 = COORDINATED_UNIVERSAL_TIME_OFFSET ( 1, 0, .AHEAD. ) ;
#93 = DIRECTION ( 'NONE',  ( 3.491481338843133355E-15, -1.224646799147353207E-16, 1.000000000000000000 ) ) ;
#94 = CALENDAR_DATE ( 2021, 15, 11 ) ;
#95 = ADVANCED_BREP_SHAPE_REPRESENTATION ( '57249', ( #154, #80, #7 ), #81 ) ;
#96 = ORIENTED_EDGE ( 'NONE', *, *, #178, .T. ) ;
#97 = EDGE_CURVE ( 'NONE', #12, #12, #3, .T. ) ;
#98 = APPROVAL_STATUS ( 'not_yet_approved' ) ;
#99 = ADVANCED_FACE ( 'NONE', ( #181, #171 ), #89, .T. ) ;
#100 = DIRECTION ( 'NONE',  ( 3.491481338843133355E-15, -1.224646799147353207E-16, 1.000000000000000000 ) ) ;
#101 = CC_DESIGN_PERSON_AND_ORGANIZATION_ASSIGNMENT ( #50, #61, ( #71 ) ) ;
#102 = UNCERTAINTY_MEASURE_WITH_UNIT (LENGTH_MEASURE( 1.000000000000000082E-05 ), #69, 'distance_accuracy_value', 'NONE');
#103 = LOCAL_TIME ( 15, 47, 6.000000000000000000, #92 ) ;
#104 = DIRECTION ( 'NONE',  ( -3.491481338843133355E-15, 1.224646799147353207E-16, -1.000000000000000000 ) ) ;
#105 = DIRECTION ( 'NONE',  ( 0.0000000000000000000, 1.000000000000000000, 0.0000000000000000000 ) ) ;
#106 = APPLICATION_PROTOCOL_DEFINITION ( 'international standard', 'config_control_design', 1994, #79 ) ;
#107 = FACE_OUTER_BOUND ( 'NONE', #176, .T. ) ;
#108 = APPROVAL_PERSON_ORGANIZATION ( #193, #196, #15 ) ;
#109 = DIRECTION ( 'NONE',  ( 0.0000000000000000000, 1.000000000000000000, 0.0000000000000000000 ) ) ;
#110 = CLOSED_SHELL ( 'NONE', ( #23, #99, #198, #13 ) ) ;
#111 = DIRECTION ( 'NONE',  ( 1.000000000000000000, 0.0000000000000000000, 0.0000000000000000000 ) ) ;
#112 = VERTEX_POINT ( 'NONE', #65 ) ;
#113 = EDGE_LOOP ( 'NONE', ( #158 ) ) ;
#114 = COORDINATED_UNIVERSAL_TIME_OFFSET ( 1, 0, .AHEAD. ) ;
#115 = CC_DESIGN_PERSON_AND_ORGANIZATION_ASSIGNMENT ( #142, #160, ( #166 ) ) ;
#116 = APPROVAL_ROLE ( '' ) ;
#117 = EDGE_LOOP ( 'NONE', ( #87 ) ) ;
#118 = CC_DESIGN_PERSON_AND_ORGANIZATION_ASSIGNMENT ( #31, #170, ( #85 ) ) ;
#119 = ORIENTED_EDGE ( 'NONE', *, *, #162, .T. ) ;
#120 = ORGANIZATION ( 'UNSPECIFIED', 'UNSPECIFIED', '' ) ;
#121 = CARTESIAN_POINT ( 'NONE',  ( 9.077851480992146724E-14, 5.249159239316491775E-32, 26.00000000000000000 ) ) ;
#122 = DIRECTION ( 'NONE',  ( 0.0000000000000000000, 1.000000000000000000, 0.0000000000000000000 ) ) ;
#123 = DIRECTION ( 'NONE',  ( 4.275831445896958607E-31, 1.000000000000000000, 1.224646799147353207E-16 ) ) ;
#124 = EDGE_CURVE ( 'NONE', #66, #66, #20, .T. ) ;
#125 = DIRECTION ( 'NONE',  ( -3.491481338843133355E-15, 1.224646799147353207E-16, -1.000000000000000000 ) ) ;
#126 = CARTESIAN_POINT ( 'NONE',  ( -2.565506704473486857E-30, 8.998586184239916504E-32, -7.347903240758953959E-16 ) ) ;
#127 =( NAMED_UNIT ( * ) SI_UNIT ( $, .STERADIAN. ) SOLID_ANGLE_UNIT ( ) );
#128 = CC_DESIGN_DATE_AND_TIME_ASSIGNMENT ( #86, #70, ( #73 ) ) ;
#129 = FACE_BOUND ( 'NONE', #165, .T. ) ;
#130 = CALENDAR_DATE ( 2021, 15, 11 ) ;
#131 = AXIS2_PLACEMENT_3D ( 'NONE', #126, #104, #184 ) ;
#132 = FACE_OUTER_BOUND ( 'NONE', #172, .T. ) ;
#133 = CIRCLE ( 'NONE', #173, 6.500000000000000888 ) ;
#134 = FACE_OUTER_BOUND ( 'NONE', #117, .T. ) ;
#135 = VERTEX_POINT ( 'NONE', #56 ) ;
#136 = CARTESIAN_POINT ( 'NONE',  ( 4.275753076543797008E-31, 6.999999999999989342, 1.224624353272506412E-16 ) ) ;
#137 = LOCAL_TIME ( 15, 47, 6.000000000000000000, #143 ) ;
#138 = AXIS2_PLACEMENT_3D ( 'NONE', #47, #125, #30 ) ;
#139 = FACE_OUTER_BOUND ( 'NONE', #113, .T. ) ;
#140 = APPROVAL_STATUS ( 'not_yet_approved' ) ;
#141 = PERSON_AND_ORGANIZATION ( #78, #120 ) ;
#142 = PERSON_AND_ORGANIZATION ( #78, #120 ) ;
#143 = COORDINATED_UNIVERSAL_TIME_OFFSET ( 1, 0, .AHEAD. ) ;
#144 = ADVANCED_FACE ( 'NONE', ( #107, #29 ), #161, .T. ) ;
#145 = LOCAL_TIME ( 15, 47, 6.000000000000000000, #177 ) ;
#146 = DATE_TIME_ROLE ( 'creation_date' ) ;
#147 = AXIS2_PLACEMENT_3D ( 'NONE', #57, #14, #42 ) ;
#148 = APPROVAL_ROLE ( '' ) ;
#149 = ADVANCED_FACE ( 'NONE', ( #139 ), #25, .T. ) ;
#150 = APPROVAL_DATE_TIME ( #17, #64 ) ;
#151 = CARTESIAN_POINT ( 'NONE',  ( 2.897929511239800811E-13, -1.016456843292303150E-14, 83.00000000000000000 ) ) ;
#152 = CC_DESIGN_APPROVAL ( #1, ( #73 ) ) ;
#153 = CARTESIAN_POINT ( 'NONE',  ( 0.0000000000000000000, 0.0000000000000000000, 0.0000000000000000000 ) ) ;
#154 = MANIFOLD_SOLID_BREP ( 'Corps-Déplacer/Copier1[1]', #110 ) ;
#155 = CIRCLE ( 'NONE', #159, 6.999999999999992895 ) ;
#156 = DIRECTION ( 'NONE',  ( 0.0000000000000000000, 1.000000000000000000, 0.0000000000000000000 ) ) ;
#157 = CC_DESIGN_PERSON_AND_ORGANIZATION_ASSIGNMENT ( #32, #59, ( #73 ) ) ;
#158 = ORIENTED_EDGE ( 'NONE', *, *, #178, .F. ) ;
#159 = AXIS2_PLACEMENT_3D ( 'NONE', #6, #44, #105 ) ;
#160 = PERSON_AND_ORGANIZATION_ROLE ( 'design_supplier' ) ;
#161 = CYLINDRICAL_SURFACE ( 'NONE', #39, 6.999999999999991118 ) ;
#162 = EDGE_CURVE ( 'NONE', #135, #135, #36, .T. ) ;
#163 = DATE_AND_TIME ( #130, #137 ) ;
#164 = CALENDAR_DATE ( 2021, 15, 11 ) ;
#165 = EDGE_LOOP ( 'NONE', ( #38 ) ) ;
#166 = PRODUCT_DEFINITION_FORMATION_WITH_SPECIFIED_SOURCE ( 'ANY', '', #85, .NOT_KNOWN. ) ;
#167 = DIRECTION ( 'NONE',  ( -4.275831445896958607E-31, -1.000000000000000000, -1.224646799147353207E-16 ) ) ;
#168 = DIRECTION ( 'NONE',  ( 4.275831445896958607E-31, 1.000000000000000000, 1.224646799147353207E-16 ) ) ;
#169 = CC_DESIGN_APPROVAL ( #64, ( #166 ) ) ;
#170 = PERSON_AND_ORGANIZATION_ROLE ( 'design_owner' ) ;
#171 = FACE_OUTER_BOUND ( 'NONE', #22, .T. ) ;
#172 = EDGE_LOOP ( 'NONE', ( #75 ) ) ;
#173 = AXIS2_PLACEMENT_3D ( 'NONE', #151, #200, #122 ) ;
#174 = CARTESIAN_POINT ( 'NONE',  ( 0.0000000000000000000, 0.0000000000000000000, 0.0000000000000000000 ) ) ;
#175 = SECURITY_CLASSIFICATION_LEVEL ( 'unclassified' ) ;
#176 = EDGE_LOOP ( 'NONE', ( #18 ) ) ;
#177 = COORDINATED_UNIVERSAL_TIME_OFFSET ( 1, 0, .AHEAD. ) ;
#178 = EDGE_CURVE ( 'NONE', #48, #48, #155, .T. ) ;
#179 = APPROVAL_DATE_TIME ( #199, #1 ) ;
#180 = CLOSED_SHELL ( 'NONE', ( #185, #144, #149 ) ) ;
#181 = FACE_OUTER_BOUND ( 'NONE', #77, .T. ) ;
#182 = AXIS2_PLACEMENT_3D ( 'NONE', #16, #93, #9 ) ;
#183 = FACE_OUTER_BOUND ( 'NONE', #197, .T. ) ;
#184 = DIRECTION ( 'NONE',  ( 4.275831445896958607E-31, 1.000000000000000000, 1.224646799147353454E-16 ) ) ;
#185 = ADVANCED_FACE ( 'NONE', ( #8 ), #74, .F. ) ;
#186 = DIRECTION ( 'NONE',  ( -3.491481338843133355E-15, 1.224646799147353207E-16, -1.000000000000000000 ) ) ;
#187 = DESIGN_CONTEXT ( 'detailed design', #79, 'design' ) ;
#188 = DIRECTION ( 'NONE',  ( -3.491481338843133355E-15, 1.224646799147353207E-16, -1.000000000000000000 ) ) ;
#189 = AXIS2_PLACEMENT_3D ( 'NONE', #55, #202, #123 ) ;
#190 =( NAMED_UNIT ( * ) PLANE_ANGLE_UNIT ( ) SI_UNIT ( $, .RADIAN. ) );
#191 = AXIS2_PLACEMENT_3D ( 'NONE', #72, #186, #156 ) ;
#192 = CARTESIAN_POINT ( 'NONE',  ( 2.897929511239800811E-13, -1.016456843292303150E-14, 83.00000000000000000 ) ) ;
#193 = PERSON_AND_ORGANIZATION ( #78, #120 ) ;
#194 = ORIENTED_EDGE ( 'NONE', *, *, #124, .T. ) ;
#195 = DATE_AND_TIME ( #94, #49 ) ;
#196 = APPROVAL ( #140, 'UNSPECIFIED' ) ;
#197 = EDGE_LOOP ( 'NONE', ( #119 ) ) ;
#198 = ADVANCED_FACE ( 'NONE', ( #132, #129 ), #84, .T. ) ;
#199 = DATE_AND_TIME ( #19, #24 ) ;
#200 = DIRECTION ( 'NONE',  ( -3.491481338843133355E-15, 1.224646799147353207E-16, -1.000000000000000000 ) ) ;
#201 = COORDINATED_UNIVERSAL_TIME_OFFSET ( 1, 0, .AHEAD. ) ;
#202 = DIRECTION ( 'NONE',  ( -3.491481338843133355E-15, 1.224646799147353207E-16, -1.000000000000000000 ) ) ;
#203 = CARTESIAN_POINT ( 'NONE',  ( 2.880472104545584703E-13, -1.010333609296566392E-14, 82.50000000000000000 ) ) ;
ENDSEC;
END-ISO-10303-21;
