ISO-10303-21;
HEADER;
FILE_DESCRIPTION (( 'STEP AP203' ),
    '1' );
FILE_NAME ('57248.step',
    '2021-11-15T14:47:05',
    ( '' ),
    ( '' ),
    'SwSTEP 2.0',
    'SolidWorks 2019',
    '' );
FILE_SCHEMA (( 'CONFIG_CONTROL_DESIGN' ));
ENDSEC;

DATA;
#1 = ADVANCED_FACE ( 'NONE', ( #5 ), #65, .F. ) ;
#2 = COORDINATED_UNIVERSAL_TIME_OFFSET ( 1, 0, .AHEAD. ) ;
#3 = AXIS2_PLACEMENT_3D ( 'NONE', #115, #36, #129 ) ;
#4 = EDGE_LOOP ( 'NONE', ( #97 ) ) ;
#5 = FACE_OUTER_BOUND ( 'NONE', #62, .T. ) ;
#6 = CLOSED_SHELL ( 'NONE', ( #187, #143, #79 ) ) ;
#7 = APPROVAL_DATE_TIME ( #122, #169 ) ;
#8 = CALENDAR_DATE ( 2021, 15, 11 ) ;
#9 = CARTESIAN_POINT ( 'NONE',  ( 2.880472104545584703E-13, -1.010333609296566392E-14, 82.50000000000000000 ) ) ;
#10 = CC_DESIGN_APPROVAL ( #63, ( #59 ) ) ;
#11 = DIRECTION ( 'NONE',  ( 0.0000000000000000000, 1.000000000000000000, 0.0000000000000000000 ) ) ;
#12 = CC_DESIGN_PERSON_AND_ORGANIZATION_ASSIGNMENT ( #91, #46, ( #16 ) ) ;
#13 =( NAMED_UNIT ( * ) SI_UNIT ( $, .STERADIAN. ) SOLID_ANGLE_UNIT ( ) );
#14 = PLANE ( 'NONE',  #131 ) ;
#15 = MANIFOLD_SOLID_BREP ( 'Corps-Déplacer/Copier1[1]', #82 ) ;
#16 = PRODUCT_DEFINITION_FORMATION_WITH_SPECIFIED_SOURCE ( 'ANY', '', #40, .NOT_KNOWN. ) ;
#17 = UNCERTAINTY_MEASURE_WITH_UNIT (LENGTH_MEASURE( 1.000000000000000082E-05 ), #57, 'distance_accuracy_value', 'NONE');
#18 = EDGE_LOOP ( 'NONE', ( #153 ) ) ;
#19 = AXIS2_PLACEMENT_3D ( 'NONE', #124, #20, #54 ) ;
#20 = DIRECTION ( 'NONE',  ( -3.491481338843133355E-15, 1.224646799147353207E-16, -1.000000000000000000 ) ) ;
#21 = DIRECTION ( 'NONE',  ( -4.275831445896958607E-31, -1.000000000000000000, -1.224646799147353207E-16 ) ) ;
#22 = PERSON ( 'UNSPECIFIED', 'UNSPECIFIED', 'UNSPECIFIED', ('UNSPECIFIED'), ('UNSPECIFIED'), ('UNSPECIFIED') ) ;
#23 = DIRECTION ( 'NONE',  ( -3.491481338843133355E-15, 1.224646799147353207E-16, -1.000000000000000000 ) ) ;
#24 = CC_DESIGN_SECURITY_CLASSIFICATION ( #106, ( #16 ) ) ;
#25 = CARTESIAN_POINT ( 'NONE',  ( 9.077851480992146724E-14, -3.184081677783118191E-15, 26.00000000000000000 ) ) ;
#26 = ADVANCED_FACE ( 'NONE', ( #98, #136 ), #152, .T. ) ;
#27 = CARTESIAN_POINT ( 'NONE',  ( 0.0000000000000000000, 0.0000000000000000000, 0.0000000000000000000 ) ) ;
#28 =( GEOMETRIC_REPRESENTATION_CONTEXT ( 3 ) GLOBAL_UNCERTAINTY_ASSIGNED_CONTEXT ( ( #17 ) ) GLOBAL_UNIT_ASSIGNED_CONTEXT ( ( #57, #178, #13 ) ) REPRESENTATION_CONTEXT ( 'NONE', 'WORKASPACE' ) );
#29 = DATE_AND_TIME ( #107, #171 ) ;
#30 = PRODUCT_RELATED_PRODUCT_CATEGORY ( 'detail', '', ( #40 ) ) ;
#31 = DIRECTION ( 'NONE',  ( 1.000000000000000000, 0.0000000000000000000, 0.0000000000000000000 ) ) ;
#32 = EDGE_LOOP ( 'NONE', ( #121 ) ) ;
#33 = ORIENTED_EDGE ( 'NONE', *, *, #112, .T. ) ;
#34 = EDGE_LOOP ( 'NONE', ( #167 ) ) ;
#35 = ORGANIZATION ( 'UNSPECIFIED', 'UNSPECIFIED', '' ) ;
#36 = DIRECTION ( 'NONE',  ( -3.491481338843133355E-15, 1.224646799147353207E-16, -1.000000000000000000 ) ) ;
#37 = CC_DESIGN_DATE_AND_TIME_ASSIGNMENT ( #189, #95, ( #106 ) ) ;
#38 = CARTESIAN_POINT ( 'NONE',  ( 4.275753076543797008E-31, 5.999999999999991118, 1.224624353272506412E-16 ) ) ;
#39 = DIRECTION ( 'NONE',  ( -3.491481338843133355E-15, 1.224646799147353207E-16, -1.000000000000000000 ) ) ;
#40 = PRODUCT ( '57248', '57248', '', ( #92 ) ) ;
#41 = DIRECTION ( 'NONE',  ( 0.0000000000000000000, 1.000000000000000000, 0.0000000000000000000 ) ) ;
#42 = VERTEX_POINT ( 'NONE', #88 ) ;
#43 = APPLICATION_PROTOCOL_DEFINITION ( 'international standard', 'config_control_design', 1994, #48 ) ;
#44 = APPROVAL_DATE_TIME ( #29, #63 ) ;
#45 = DIRECTION ( 'NONE',  ( 0.0000000000000000000, 0.0000000000000000000, 1.000000000000000000 ) ) ;
#46 = PERSON_AND_ORGANIZATION_ROLE ( 'design_supplier' ) ;
#47 = ORIENTED_EDGE ( 'NONE', *, *, #112, .F. ) ;
#48 = APPLICATION_CONTEXT ( 'configuration controlled 3d designs of mechanical parts and assemblies' ) ;
#49 = AXIS2_PLACEMENT_3D ( 'NONE', #199, #39, #158 ) ;
#50 = EDGE_LOOP ( 'NONE', ( #99 ) ) ;
#51 = ADVANCED_FACE ( 'NONE', ( #94, #140 ), #123, .T. ) ;
#52 = ORIENTED_EDGE ( 'NONE', *, *, #148, .T. ) ;
#53 = APPROVAL_PERSON_ORGANIZATION ( #166, #138, #119 ) ;
#54 = DIRECTION ( 'NONE',  ( 4.275831445896958607E-31, 1.000000000000000000, 1.224646799147353207E-16 ) ) ;
#55 = DIRECTION ( 'NONE',  ( 0.0000000000000000000, 1.000000000000000000, 0.0000000000000000000 ) ) ;
#56 = VERTEX_POINT ( 'NONE', #73 ) ;
#57 =( LENGTH_UNIT ( ) NAMED_UNIT ( * ) SI_UNIT ( .MILLI., .METRE. ) );
#58 = APPROVAL_STATUS ( 'not_yet_approved' ) ;
#59 = PRODUCT_DEFINITION ( 'UNKNOWN', '', #16, #134 ) ;
#60 = CALENDAR_DATE ( 2021, 15, 11 ) ;
#61 = AXIS2_PLACEMENT_3D ( 'NONE', #86, #128, #55 ) ;
#62 = EDGE_LOOP ( 'NONE', ( #33 ) ) ;
#63 = APPROVAL ( #77, 'UNSPECIFIED' ) ;
#64 = AXIS2_PLACEMENT_3D ( 'NONE', #27, #200, #172 ) ;
#65 = PLANE ( 'NONE',  #133 ) ;
#66 = SHAPE_DEFINITION_REPRESENTATION ( #191, #96 ) ;
#67 = DIRECTION ( 'NONE',  ( -4.275831445896958607E-31, -1.000000000000000000, -1.224646799147353207E-16 ) ) ;
#68 = AXIS2_PLACEMENT_3D ( 'NONE', #196, #111, #71 ) ;
#69 = FACE_OUTER_BOUND ( 'NONE', #192, .T. ) ;
#70 = CARTESIAN_POINT ( 'NONE',  ( 9.077851480992146724E-14, 4.499279347985564065E-32, 26.00000000000000000 ) ) ;
#71 = DIRECTION ( 'NONE',  ( 4.275831445896958607E-31, 1.000000000000000000, 1.224646799147353207E-16 ) ) ;
#72 = EDGE_CURVE ( 'NONE', #157, #157, #149, .T. ) ;
#73 = CARTESIAN_POINT ( 'NONE',  ( 9.077851480992146724E-14, 5.999999999999991118, 26.00000000000000000 ) ) ;
#74 = AXIS2_PLACEMENT_3D ( 'NONE', #125, #175, #101 ) ;
#75 = DATE_AND_TIME ( #60, #161 ) ;
#76 = LOCAL_TIME ( 15, 47, 5.000000000000000000, #2 ) ;
#77 = APPROVAL_STATUS ( 'not_yet_approved' ) ;
#78 = CC_DESIGN_APPROVAL ( #138, ( #16 ) ) ;
#79 = ADVANCED_FACE ( 'NONE', ( #177 ), #14, .T. ) ;
#80 = MANIFOLD_SOLID_BREP ( 'Corps-Déplacer/Copier1[2]', #6 ) ;
#81 = ORIENTED_EDGE ( 'NONE', *, *, #72, .T. ) ;
#82 = CLOSED_SHELL ( 'NONE', ( #1, #26, #51, #201 ) ) ;
#83 = EDGE_LOOP ( 'NONE', ( #188 ) ) ;
#84 = CC_DESIGN_PERSON_AND_ORGANIZATION_ASSIGNMENT ( #185, #164, ( #16 ) ) ;
#85 = FACE_OUTER_BOUND ( 'NONE', #34, .T. ) ;
#86 = CARTESIAN_POINT ( 'NONE',  ( 2.897929511239800811E-13, -1.016456843292303150E-14, 83.00000000000000000 ) ) ;
#87 = DIRECTION ( 'NONE',  ( -3.491481338843133355E-15, 1.224646799147353207E-16, -1.000000000000000000 ) ) ;
#88 = CARTESIAN_POINT ( 'NONE',  ( 9.077851480992146724E-14, 5.999999999999991118, 26.00000000000000000 ) ) ;
#89 = PERSON_AND_ORGANIZATION_ROLE ( 'creator' ) ;
#90 = PERSON_AND_ORGANIZATION ( #22, #35 ) ;
#91 = PERSON_AND_ORGANIZATION ( #22, #35 ) ;
#92 = MECHANICAL_CONTEXT ( 'NONE', #183, 'mechanical' ) ;
#93 = PERSON_AND_ORGANIZATION ( #22, #35 ) ;
#94 = FACE_OUTER_BOUND ( 'NONE', #4, .T. ) ;
#95 = DATE_TIME_ROLE ( 'classification_date' ) ;
#96 = ADVANCED_BREP_SHAPE_REPRESENTATION ( '57248', ( #15, #80, #114 ), #28 ) ;
#97 = ORIENTED_EDGE ( 'NONE', *, *, #105, .F. ) ;
#98 = FACE_OUTER_BOUND ( 'NONE', #151, .T. ) ;
#99 = ORIENTED_EDGE ( 'NONE', *, *, #72, .F. ) ;
#100 = PERSON_AND_ORGANIZATION ( #22, #35 ) ;
#101 = DIRECTION ( 'NONE',  ( -4.275831445896958607E-31, -1.000000000000000000, -1.224646799147353207E-16 ) ) ;
#102 = COORDINATED_UNIVERSAL_TIME_OFFSET ( 1, 0, .AHEAD. ) ;
#103 = DIRECTION ( 'NONE',  ( 0.0000000000000000000, 1.000000000000000000, 0.0000000000000000000 ) ) ;
#104 = FACE_OUTER_BOUND ( 'NONE', #18, .T. ) ;
#105 = EDGE_CURVE ( 'NONE', #202, #202, #145, .T. ) ;
#106 = SECURITY_CLASSIFICATION ( '', '', #173 ) ;
#107 = CALENDAR_DATE ( 2021, 15, 11 ) ;
#108 = APPROVAL_DATE_TIME ( #75, #138 ) ;
#109 = APPROVAL_ROLE ( '' ) ;
#110 = CARTESIAN_POINT ( 'NONE',  ( 9.077851480992146724E-14, 4.499279347985564065E-32, 26.00000000000000000 ) ) ;
#111 = DIRECTION ( 'NONE',  ( -3.491481338843133355E-15, 1.224646799147353207E-16, -1.000000000000000000 ) ) ;
#112 = EDGE_CURVE ( 'NONE', #42, #42, #180, .T. ) ;
#113 = DIRECTION ( 'NONE',  ( -3.491481338843133355E-15, 1.224646799147353207E-16, -1.000000000000000000 ) ) ;
#114 = AXIS2_PLACEMENT_3D ( 'NONE', #120, #45, #31 ) ;
#115 = CARTESIAN_POINT ( 'NONE',  ( 2.897929511239800811E-13, -1.016456843292303150E-14, 83.00000000000000000 ) ) ;
#116 = PLANE ( 'NONE',  #74 ) ;
#117 = APPLICATION_PROTOCOL_DEFINITION ( 'international standard', 'config_control_design', 1994, #183 ) ;
#118 = LOCAL_TIME ( 15, 47, 5.000000000000000000, #150 ) ;
#119 = APPROVAL_ROLE ( '' ) ;
#120 = CARTESIAN_POINT ( 'NONE',  ( 0.0000000000000000000, 0.0000000000000000000, 0.0000000000000000000 ) ) ;
#121 = ORIENTED_EDGE ( 'NONE', *, *, #105, .T. ) ;
#122 = DATE_AND_TIME ( #155, #118 ) ;
#123 = CONICAL_SURFACE ( 'NONE', #3, 5.500000000000001776, 0.7853981633974482790 ) ;
#124 = CARTESIAN_POINT ( 'NONE',  ( 0.0000000000000000000, 0.0000000000000000000, 0.0000000000000000000 ) ) ;
#125 = CARTESIAN_POINT ( 'NONE',  ( -1.068961779941895936E-30, 3.749413200789030543E-32, -3.061628220805801239E-16 ) ) ;
#126 = FACE_OUTER_BOUND ( 'NONE', #50, .T. ) ;
#127 = DIRECTION ( 'NONE',  ( 3.491481338843133355E-15, -1.224646799147353207E-16, 1.000000000000000000 ) ) ;
#128 = DIRECTION ( 'NONE',  ( -3.491481338843133355E-15, 1.224646799147353207E-16, -1.000000000000000000 ) ) ;
#129 = DIRECTION ( 'NONE',  ( 0.0000000000000000000, 1.000000000000000000, 0.0000000000000000000 ) ) ;
#130 = CALENDAR_DATE ( 2021, 15, 11 ) ;
#131 = AXIS2_PLACEMENT_3D ( 'NONE', #70, #127, #21 ) ;
#132 = PERSON_AND_ORGANIZATION ( #22, #35 ) ;
#133 = AXIS2_PLACEMENT_3D ( 'NONE', #110, #170, #67 ) ;
#134 = DESIGN_CONTEXT ( 'detailed design', #48, 'design' ) ;
#135 = CIRCLE ( 'NONE', #49, 5.999999999999991118 ) ;
#136 = FACE_OUTER_BOUND ( 'NONE', #32, .T. ) ;
#137 = PERSON_AND_ORGANIZATION ( #22, #35 ) ;
#138 = APPROVAL ( #58, 'UNSPECIFIED' ) ;
#139 = CYLINDRICAL_SURFACE ( 'NONE', #64, 5.999999999999992895 ) ;
#140 = FACE_BOUND ( 'NONE', #186, .T. ) ;
#141 = CARTESIAN_POINT ( 'NONE',  ( 2.897929511239800811E-13, 5.499999999999991118, 83.00000000000000000 ) ) ;
#142 = APPROVAL_PERSON_ORGANIZATION ( #93, #63, #147 ) ;
#143 = ADVANCED_FACE ( 'NONE', ( #104, #85 ), #139, .T. ) ;
#144 = COORDINATED_UNIVERSAL_TIME_OFFSET ( 1, 0, .AHEAD. ) ;
#145 = CIRCLE ( 'NONE', #156, 6.000000000000001776 ) ;
#146 = COORDINATED_UNIVERSAL_TIME_OFFSET ( 1, 0, .AHEAD. ) ;
#147 = APPROVAL_ROLE ( '' ) ;
#148 = EDGE_CURVE ( 'NONE', #197, #197, #135, .T. ) ;
#149 = CIRCLE ( 'NONE', #61, 5.500000000000001776 ) ;
#150 = COORDINATED_UNIVERSAL_TIME_OFFSET ( 1, 0, .AHEAD. ) ;
#151 = EDGE_LOOP ( 'NONE', ( #47 ) ) ;
#152 = CYLINDRICAL_SURFACE ( 'NONE', #19, 5.999999999999998224 ) ;
#153 = ORIENTED_EDGE ( 'NONE', *, *, #148, .F. ) ;
#154 = PLANE ( 'NONE',  #68 ) ;
#155 = CALENDAR_DATE ( 2021, 15, 11 ) ;
#156 = AXIS2_PLACEMENT_3D ( 'NONE', #9, #87, #11 ) ;
#157 = VERTEX_POINT ( 'NONE', #141 ) ;
#158 = DIRECTION ( 'NONE',  ( 4.275831445896959482E-31, 1.000000000000000000, 1.224646799147353207E-16 ) ) ;
#159 = CC_DESIGN_PERSON_AND_ORGANIZATION_ASSIGNMENT ( #90, #182, ( #40 ) ) ;
#160 = CARTESIAN_POINT ( 'NONE',  ( 9.077851480992146724E-14, -3.184081677783118191E-15, 26.00000000000000000 ) ) ;
#161 = LOCAL_TIME ( 15, 47, 5.000000000000000000, #144 ) ;
#162 = CC_DESIGN_PERSON_AND_ORGANIZATION_ASSIGNMENT ( #132, #89, ( #59 ) ) ;
#163 = DATE_AND_TIME ( #130, #76 ) ;
#164 = PERSON_AND_ORGANIZATION_ROLE ( 'creator' ) ;
#165 = AXIS2_PLACEMENT_3D ( 'NONE', #160, #23, #41 ) ;
#166 = PERSON_AND_ORGANIZATION ( #22, #35 ) ;
#167 = ORIENTED_EDGE ( 'NONE', *, *, #198, .T. ) ;
#168 = PERSON_AND_ORGANIZATION_ROLE ( 'classification_officer' ) ;
#169 = APPROVAL ( #194, 'UNSPECIFIED' ) ;
#170 = DIRECTION ( 'NONE',  ( 3.491481338843133355E-15, -1.224646799147353207E-16, 1.000000000000000000 ) ) ;
#171 = LOCAL_TIME ( 15, 47, 5.000000000000000000, #146 ) ;
#172 = DIRECTION ( 'NONE',  ( 4.275831445896958607E-31, 1.000000000000000000, 1.224646799147353207E-16 ) ) ;
#173 = SECURITY_CLASSIFICATION_LEVEL ( 'unclassified' ) ;
#174 = CARTESIAN_POINT ( 'NONE',  ( 2.880472104545584703E-13, 5.999999999999991118, 82.50000000000000000 ) ) ;
#175 = DIRECTION ( 'NONE',  ( 3.491481338843133355E-15, -1.224646799147353207E-16, 1.000000000000000000 ) ) ;
#176 = CC_DESIGN_APPROVAL ( #169, ( #106 ) ) ;
#177 = FACE_OUTER_BOUND ( 'NONE', #83, .T. ) ;
#178 =( NAMED_UNIT ( * ) PLANE_ANGLE_UNIT ( ) SI_UNIT ( $, .RADIAN. ) );
#179 = CC_DESIGN_DATE_AND_TIME_ASSIGNMENT ( #163, #181, ( #59 ) ) ;
#180 = CIRCLE ( 'NONE', #165, 5.999999999999994671 ) ;
#181 = DATE_TIME_ROLE ( 'creation_date' ) ;
#182 = PERSON_AND_ORGANIZATION_ROLE ( 'design_owner' ) ;
#183 = APPLICATION_CONTEXT ( 'configuration controlled 3d designs of mechanical parts and assemblies' ) ;
#184 = AXIS2_PLACEMENT_3D ( 'NONE', #25, #113, #103 ) ;
#185 = PERSON_AND_ORGANIZATION ( #22, #35 ) ;
#186 = EDGE_LOOP ( 'NONE', ( #81 ) ) ;
#187 = ADVANCED_FACE ( 'NONE', ( #69 ), #116, .F. ) ;
#188 = ORIENTED_EDGE ( 'NONE', *, *, #198, .F. ) ;
#189 = DATE_AND_TIME ( #8, #190 ) ;
#190 = LOCAL_TIME ( 15, 47, 5.000000000000000000, #102 ) ;
#191 = PRODUCT_DEFINITION_SHAPE ( 'NONE', 'NONE',  #59 ) ;
#192 = EDGE_LOOP ( 'NONE', ( #52 ) ) ;
#193 = CC_DESIGN_PERSON_AND_ORGANIZATION_ASSIGNMENT ( #137, #168, ( #106 ) ) ;
#194 = APPROVAL_STATUS ( 'not_yet_approved' ) ;
#195 = CIRCLE ( 'NONE', #184, 5.999999999999994671 ) ;
#196 = CARTESIAN_POINT ( 'NONE',  ( 2.897929511239800811E-13, 4.124339402320094190E-32, 83.00000000000000000 ) ) ;
#197 = VERTEX_POINT ( 'NONE', #38 ) ;
#198 = EDGE_CURVE ( 'NONE', #56, #56, #195, .T. ) ;
#199 = CARTESIAN_POINT ( 'NONE',  ( -2.137923559883791872E-30, 7.498826401578061086E-32, -6.123256441611602477E-16 ) ) ;
#200 = DIRECTION ( 'NONE',  ( -3.491481338843133355E-15, 1.224646799147353207E-16, -1.000000000000000000 ) ) ;
#201 = ADVANCED_FACE ( 'NONE', ( #126 ), #154, .F. ) ;
#202 = VERTEX_POINT ( 'NONE', #174 ) ;
#203 = APPROVAL_PERSON_ORGANIZATION ( #100, #169, #109 ) ;
ENDSEC;
END-ISO-10303-21;
