ISO-10303-21;
HEADER;
FILE_DESCRIPTION (( 'STEP AP203' ),
    '1' );
FILE_NAME ('57247.step',
    '2021-11-15T14:47:05',
    ( '' ),
    ( '' ),
    'SwSTEP 2.0',
    'SolidWorks 2019',
    '' );
FILE_SCHEMA (( 'CONFIG_CONTROL_DESIGN' ));
ENDSEC;

DATA;
#1 = ADVANCED_FACE ( 'NONE', ( #200 ), #152, .F. ) ;
#2 = PERSON_AND_ORGANIZATION ( #41, #140 ) ;
#3 =( GEOMETRIC_REPRESENTATION_CONTEXT ( 3 ) GLOBAL_UNCERTAINTY_ASSIGNED_CONTEXT ( ( #47 ) ) GLOBAL_UNIT_ASSIGNED_CONTEXT ( ( #59, #108, #14 ) ) REPRESENTATION_CONTEXT ( 'NONE', 'WORKASPACE' ) );
#4 = CARTESIAN_POINT ( 'NONE',  ( 2.496409157272839907E-13, 4.999999999999992006, 71.49999999999998579 ) ) ;
#5 = PERSON_AND_ORGANIZATION ( #41, #140 ) ;
#6 = DIRECTION ( 'NONE',  ( -3.491481338843133355E-15, 1.224646799147353207E-16, -1.000000000000000000 ) ) ;
#7 = EDGE_CURVE ( 'NONE', #75, #75, #170, .T. ) ;
#8 = DIRECTION ( 'NONE',  ( 4.275831445896959482E-31, 1.000000000000000000, 1.224646799147353207E-16 ) ) ;
#9 = FACE_OUTER_BOUND ( 'NONE', #82, .T. ) ;
#10 = PLANE ( 'NONE',  #158 ) ;
#11 = PRODUCT_DEFINITION_FORMATION_WITH_SPECIFIED_SOURCE ( 'ANY', '', #163, .NOT_KNOWN. ) ;
#12 = ADVANCED_FACE ( 'NONE', ( #9 ), #10, .F. ) ;
#13 = DIRECTION ( 'NONE',  ( 0.0000000000000000000, 1.000000000000000000, 0.0000000000000000000 ) ) ;
#14 =( NAMED_UNIT ( * ) SI_UNIT ( $, .STERADIAN. ) SOLID_ANGLE_UNIT ( ) );
#15 = AXIS2_PLACEMENT_3D ( 'NONE', #38, #67, #26 ) ;
#16 = PERSON_AND_ORGANIZATION ( #41, #140 ) ;
#17 = ADVANCED_FACE ( 'NONE', ( #68, #98 ), #148, .T. ) ;
#18 = VERTEX_POINT ( 'NONE', #139 ) ;
#19 = DESIGN_CONTEXT ( 'detailed design', #114, 'design' ) ;
#20 = APPROVAL ( #31, 'UNSPECIFIED' ) ;
#21 = AXIS2_PLACEMENT_3D ( 'NONE', #85, #134, #157 ) ;
#22 = COORDINATED_UNIVERSAL_TIME_OFFSET ( 1, 0, .AHEAD. ) ;
#23 = DIRECTION ( 'NONE',  ( -3.491481338843133355E-15, 1.224646799147353207E-16, -1.000000000000000000 ) ) ;
#24 = DIRECTION ( 'NONE',  ( 0.0000000000000000000, 1.000000000000000000, 0.0000000000000000000 ) ) ;
#25 = DIRECTION ( 'NONE',  ( 0.0000000000000000000, 1.000000000000000000, 0.0000000000000000000 ) ) ;
#26 = DIRECTION ( 'NONE',  ( 4.275831445896959482E-31, 1.000000000000000000, 1.224646799147353207E-16 ) ) ;
#27 = CARTESIAN_POINT ( 'NONE',  ( 4.275753076543797008E-31, 4.999999999999992006, 1.224624353272506412E-16 ) ) ;
#28 = CARTESIAN_POINT ( 'NONE',  ( 0.0000000000000000000, 0.0000000000000000000, 0.0000000000000000000 ) ) ;
#29 = PERSON_AND_ORGANIZATION_ROLE ( 'design_owner' ) ;
#30 = EDGE_LOOP ( 'NONE', ( #171 ) ) ;
#31 = APPROVAL_STATUS ( 'not_yet_approved' ) ;
#32 = PERSON_AND_ORGANIZATION_ROLE ( 'classification_officer' ) ;
#33 = CC_DESIGN_PERSON_AND_ORGANIZATION_ASSIGNMENT ( #142, #109, ( #11 ) ) ;
#34 = CC_DESIGN_APPROVAL ( #167, ( #112 ) ) ;
#35 = DATE_AND_TIME ( #91, #65 ) ;
#36 = EDGE_LOOP ( 'NONE', ( #45 ) ) ;
#37 = CARTESIAN_POINT ( 'NONE',  ( 2.513866563967056016E-13, 3.374459510989167028E-32, 72.00000000000000000 ) ) ;
#38 = CARTESIAN_POINT ( 'NONE',  ( 0.0000000000000000000, 0.0000000000000000000, 0.0000000000000000000 ) ) ;
#39 = DIRECTION ( 'NONE',  ( -3.491481338843133355E-15, 1.224646799147353207E-16, -1.000000000000000000 ) ) ;
#40 = CARTESIAN_POINT ( 'NONE',  ( 7.681258945454893382E-14, -2.694222958124176809E-15, 22.00000000000000000 ) ) ;
#41 = PERSON ( 'UNSPECIFIED', 'UNSPECIFIED', 'UNSPECIFIED', ('UNSPECIFIED'), ('UNSPECIFIED'), ('UNSPECIFIED') ) ;
#42 = FACE_BOUND ( 'NONE', #95, .T. ) ;
#43 = VERTEX_POINT ( 'NONE', #44 ) ;
#44 = CARTESIAN_POINT ( 'NONE',  ( 7.681258945454893382E-14, 4.999999999999992006, 22.00000000000000000 ) ) ;
#45 = ORIENTED_EDGE ( 'NONE', *, *, #192, .T. ) ;
#46 = DATE_AND_TIME ( #190, #77 ) ;
#47 = UNCERTAINTY_MEASURE_WITH_UNIT (LENGTH_MEASURE( 1.000000000000000082E-05 ), #59, 'distance_accuracy_value', 'NONE');
#48 = APPROVAL_DATE_TIME ( #46, #20 ) ;
#49 = LOCAL_TIME ( 15, 47, 5.000000000000000000, #155 ) ;
#50 = PRODUCT_DEFINITION_SHAPE ( 'NONE', 'NONE',  #162 ) ;
#51 = PERSON_AND_ORGANIZATION ( #41, #140 ) ;
#52 = CLOSED_SHELL ( 'NONE', ( #12, #17, #105 ) ) ;
#53 = EDGE_LOOP ( 'NONE', ( #124 ) ) ;
#54 = FACE_OUTER_BOUND ( 'NONE', #132, .T. ) ;
#55 = APPROVAL_PERSON_ORGANIZATION ( #2, #20, #61 ) ;
#56 = DIRECTION ( 'NONE',  ( -4.275831445896958607E-31, -1.000000000000000000, -1.224646799147353207E-16 ) ) ;
#57 = CARTESIAN_POINT ( 'NONE',  ( -8.551702076470480934E-31, 2.999533309458101739E-32, -2.449304821232125005E-16 ) ) ;
#58 = CIRCLE ( 'NONE', #88, 4.500000000000000888 ) ;
#59 =( LENGTH_UNIT ( ) NAMED_UNIT ( * ) SI_UNIT ( .MILLI., .METRE. ) );
#60 = ADVANCED_FACE ( 'NONE', ( #83, #96 ), #168, .T. ) ;
#61 = APPROVAL_ROLE ( '' ) ;
#62 = CC_DESIGN_SECURITY_CLASSIFICATION ( #112, ( #11 ) ) ;
#63 = SHAPE_DEFINITION_REPRESENTATION ( #50, #113 ) ;
#64 = APPROVAL_DATE_TIME ( #176, #167 ) ;
#65 = LOCAL_TIME ( 15, 47, 5.000000000000000000, #160 ) ;
#66 = DIRECTION ( 'NONE',  ( 0.0000000000000000000, 1.000000000000000000, 0.0000000000000000000 ) ) ;
#67 = DIRECTION ( 'NONE',  ( -3.491481338843133355E-15, 1.224646799147353207E-16, -1.000000000000000000 ) ) ;
#68 = FACE_OUTER_BOUND ( 'NONE', #30, .T. ) ;
#69 = CC_DESIGN_DATE_AND_TIME_ASSIGNMENT ( #73, #191, ( #162 ) ) ;
#70 = CARTESIAN_POINT ( 'NONE',  ( 7.681258945454893382E-14, -2.694222958124176809E-15, 22.00000000000000000 ) ) ;
#71 = DIRECTION ( 'NONE',  ( 3.491481338843133355E-15, -1.224646799147353207E-16, 1.000000000000000000 ) ) ;
#72 = APPLICATION_CONTEXT ( 'configuration controlled 3d designs of mechanical parts and assemblies' ) ;
#73 = DATE_AND_TIME ( #144, #120 ) ;
#74 = PERSON_AND_ORGANIZATION ( #41, #140 ) ;
#75 = VERTEX_POINT ( 'NONE', #27 ) ;
#76 = AXIS2_PLACEMENT_3D ( 'NONE', #183, #194, #8 ) ;
#77 = LOCAL_TIME ( 15, 47, 5.000000000000000000, #126 ) ;
#78 = ORIENTED_EDGE ( 'NONE', *, *, #177, .T. ) ;
#79 = DIRECTION ( 'NONE',  ( -4.275831445896958607E-31, -1.000000000000000000, -1.224646799147353207E-16 ) ) ;
#80 = DIRECTION ( 'NONE',  ( -3.491481338843133355E-15, 1.224646799147353207E-16, -1.000000000000000000 ) ) ;
#81 = CC_DESIGN_PERSON_AND_ORGANIZATION_ASSIGNMENT ( #74, #104, ( #162 ) ) ;
#82 = EDGE_LOOP ( 'NONE', ( #143 ) ) ;
#83 = FACE_OUTER_BOUND ( 'NONE', #53, .T. ) ;
#84 = AXIS2_PLACEMENT_3D ( 'NONE', #117, #39, #25 ) ;
#85 = CARTESIAN_POINT ( 'NONE',  ( 7.681258945454893382E-14, 3.749399456654636904E-32, 22.00000000000000000 ) ) ;
#86 = COORDINATED_UNIVERSAL_TIME_OFFSET ( 1, 0, .AHEAD. ) ;
#87 = PERSON_AND_ORGANIZATION ( #41, #140 ) ;
#88 = AXIS2_PLACEMENT_3D ( 'NONE', #185, #135, #195 ) ;
#89 = VERTEX_POINT ( 'NONE', #4 ) ;
#90 = AXIS2_PLACEMENT_3D ( 'NONE', #137, #198, #13 ) ;
#91 = CALENDAR_DATE ( 2021, 15, 11 ) ;
#92 = APPROVAL_ROLE ( '' ) ;
#93 = APPROVAL_PERSON_ORGANIZATION ( #16, #128, #175 ) ;
#94 = APPROVAL_STATUS ( 'not_yet_approved' ) ;
#95 = EDGE_LOOP ( 'NONE', ( #107 ) ) ;
#96 = FACE_OUTER_BOUND ( 'NONE', #197, .T. ) ;
#97 = CARTESIAN_POINT ( 'NONE',  ( 7.681258945454893382E-14, 3.749399456654636904E-32, 22.00000000000000000 ) ) ;
#98 = FACE_OUTER_BOUND ( 'NONE', #36, .T. ) ;
#99 = FACE_OUTER_BOUND ( 'NONE', #119, .T. ) ;
#100 = EDGE_CURVE ( 'NONE', #18, #18, #58, .T. ) ;
#101 = CLOSED_SHELL ( 'NONE', ( #196, #60, #172, #1 ) ) ;
#102 = DIRECTION ( 'NONE',  ( -3.491481338843133355E-15, 1.224646799147353207E-16, -1.000000000000000000 ) ) ;
#103 = DIRECTION ( 'NONE',  ( 1.000000000000000000, 0.0000000000000000000, 0.0000000000000000000 ) ) ;
#104 = PERSON_AND_ORGANIZATION_ROLE ( 'creator' ) ;
#105 = ADVANCED_FACE ( 'NONE', ( #54 ), #116, .T. ) ;
#106 = CALENDAR_DATE ( 2021, 15, 11 ) ;
#107 = ORIENTED_EDGE ( 'NONE', *, *, #100, .T. ) ;
#108 =( NAMED_UNIT ( * ) PLANE_ANGLE_UNIT ( ) SI_UNIT ( $, .RADIAN. ) );
#109 = PERSON_AND_ORGANIZATION_ROLE ( 'creator' ) ;
#110 = CIRCLE ( 'NONE', #193, 4.999999999999994671 ) ;
#111 = CALENDAR_DATE ( 2021, 15, 11 ) ;
#112 = SECURITY_CLASSIFICATION ( '', '', #121 ) ;
#113 = ADVANCED_BREP_SHAPE_REPRESENTATION ( '57247', ( #151, #147, #187 ), #3 ) ;
#114 = APPLICATION_CONTEXT ( 'configuration controlled 3d designs of mechanical parts and assemblies' ) ;
#115 = ORIENTED_EDGE ( 'NONE', *, *, #133, .T. ) ;
#116 = PLANE ( 'NONE',  #130 ) ;
#117 = CARTESIAN_POINT ( 'NONE',  ( 2.513866563967056016E-13, -8.817456953860941711E-15, 72.00000000000000000 ) ) ;
#118 = CARTESIAN_POINT ( 'NONE',  ( -1.710340415294096187E-30, 5.999066618916203478E-32, -4.898609642464250010E-16 ) ) ;
#119 = EDGE_LOOP ( 'NONE', ( #115 ) ) ;
#120 = LOCAL_TIME ( 15, 47, 5.000000000000000000, #86 ) ;
#121 = SECURITY_CLASSIFICATION_LEVEL ( 'unclassified' ) ;
#122 = MECHANICAL_CONTEXT ( 'NONE', #72, 'mechanical' ) ;
#123 = VERTEX_POINT ( 'NONE', #174 ) ;
#124 = ORIENTED_EDGE ( 'NONE', *, *, #133, .F. ) ;
#125 = CIRCLE ( 'NONE', #90, 5.000000000000000888 ) ;
#126 = COORDINATED_UNIVERSAL_TIME_OFFSET ( 1, 0, .AHEAD. ) ;
#127 = APPROVAL_PERSON_ORGANIZATION ( #51, #167, #92 ) ;
#128 = APPROVAL ( #129, 'UNSPECIFIED' ) ;
#129 = APPROVAL_STATUS ( 'not_yet_approved' ) ;
#130 = AXIS2_PLACEMENT_3D ( 'NONE', #97, #166, #56 ) ;
#131 = PRODUCT_RELATED_PRODUCT_CATEGORY ( 'detail', '', ( #163 ) ) ;
#132 = EDGE_LOOP ( 'NONE', ( #138 ) ) ;
#133 = EDGE_CURVE ( 'NONE', #43, #43, #161, .T. ) ;
#134 = DIRECTION ( 'NONE',  ( 3.491481338843133355E-15, -1.224646799147353207E-16, 1.000000000000000000 ) ) ;
#135 = DIRECTION ( 'NONE',  ( -3.491481338843133355E-15, 1.224646799147353207E-16, -1.000000000000000000 ) ) ;
#136 = FACE_OUTER_BOUND ( 'NONE', #181, .T. ) ;
#137 = CARTESIAN_POINT ( 'NONE',  ( 2.496409157272839907E-13, -8.756224613903572559E-15, 71.49999999999998579 ) ) ;
#138 = ORIENTED_EDGE ( 'NONE', *, *, #192, .F. ) ;
#139 = CARTESIAN_POINT ( 'NONE',  ( 2.513866563967056016E-13, 4.499999999999992006, 72.00000000000000000 ) ) ;
#140 = ORGANIZATION ( 'UNSPECIFIED', 'UNSPECIFIED', '' ) ;
#141 = DATE_AND_TIME ( #106, #49 ) ;
#142 = PERSON_AND_ORGANIZATION ( #41, #140 ) ;
#143 = ORIENTED_EDGE ( 'NONE', *, *, #7, .T. ) ;
#144 = CALENDAR_DATE ( 2021, 15, 11 ) ;
#145 = DATE_TIME_ROLE ( 'classification_date' ) ;
#146 = CC_DESIGN_APPROVAL ( #128, ( #162 ) ) ;
#147 = MANIFOLD_SOLID_BREP ( 'Corps-Déplacer/Copier1[2]', #52 ) ;
#148 = CYLINDRICAL_SURFACE ( 'NONE', #15, 4.999999999999993783 ) ;
#149 = DIRECTION ( 'NONE',  ( 4.275831445896958607E-31, 1.000000000000000000, 1.224646799147353207E-16 ) ) ;
#150 = CC_DESIGN_APPROVAL ( #20, ( #11 ) ) ;
#151 = MANIFOLD_SOLID_BREP ( 'Corps-Déplacer/Copier1[1]', #101 ) ;
#152 = PLANE ( 'NONE',  #202 ) ;
#153 = PERSON_AND_ORGANIZATION ( #41, #140 ) ;
#154 = CC_DESIGN_DATE_AND_TIME_ASSIGNMENT ( #35, #145, ( #112 ) ) ;
#155 = COORDINATED_UNIVERSAL_TIME_OFFSET ( 1, 0, .AHEAD. ) ;
#156 = APPLICATION_PROTOCOL_DEFINITION ( 'international standard', 'config_control_design', 1994, #72 ) ;
#157 = DIRECTION ( 'NONE',  ( -4.275831445896958607E-31, -1.000000000000000000, -1.224646799147353207E-16 ) ) ;
#158 = AXIS2_PLACEMENT_3D ( 'NONE', #57, #71, #79 ) ;
#159 = CC_DESIGN_PERSON_AND_ORGANIZATION_ASSIGNMENT ( #153, #201, ( #11 ) ) ;
#160 = COORDINATED_UNIVERSAL_TIME_OFFSET ( 1, 0, .AHEAD. ) ;
#161 = CIRCLE ( 'NONE', #189, 4.999999999999994671 ) ;
#162 = PRODUCT_DEFINITION ( 'UNKNOWN', '', #11, #19 ) ;
#163 = PRODUCT ( '57247', '57247', '', ( #122 ) ) ;
#164 = ORIENTED_EDGE ( 'NONE', *, *, #177, .F. ) ;
#165 = LOCAL_TIME ( 15, 47, 5.000000000000000000, #22 ) ;
#166 = DIRECTION ( 'NONE',  ( 3.491481338843133355E-15, -1.224646799147353207E-16, 1.000000000000000000 ) ) ;
#167 = APPROVAL ( #94, 'UNSPECIFIED' ) ;
#168 = CYLINDRICAL_SURFACE ( 'NONE', #76, 4.999999999999997335 ) ;
#169 = PLANE ( 'NONE',  #21 ) ;
#170 = CIRCLE ( 'NONE', #178, 4.999999999999992006 ) ;
#171 = ORIENTED_EDGE ( 'NONE', *, *, #7, .F. ) ;
#172 = ADVANCED_FACE ( 'NONE', ( #136, #42 ), #182, .T. ) ;
#173 = APPROVAL_DATE_TIME ( #141, #128 ) ;
#174 = CARTESIAN_POINT ( 'NONE',  ( 7.681258945454893382E-14, 4.999999999999992006, 22.00000000000000000 ) ) ;
#175 = APPROVAL_ROLE ( '' ) ;
#176 = DATE_AND_TIME ( #111, #165 ) ;
#177 = EDGE_CURVE ( 'NONE', #89, #89, #125, .T. ) ;
#178 = AXIS2_PLACEMENT_3D ( 'NONE', #118, #23, #184 ) ;
#179 = EDGE_LOOP ( 'NONE', ( #180 ) ) ;
#180 = ORIENTED_EDGE ( 'NONE', *, *, #100, .F. ) ;
#181 = EDGE_LOOP ( 'NONE', ( #164 ) ) ;
#182 = CONICAL_SURFACE ( 'NONE', #84, 4.500000000000000888, 0.7853981633974344012 ) ;
#183 = CARTESIAN_POINT ( 'NONE',  ( 0.0000000000000000000, 0.0000000000000000000, 0.0000000000000000000 ) ) ;
#184 = DIRECTION ( 'NONE',  ( 4.275831445896958607E-31, 1.000000000000000000, 1.224646799147353207E-16 ) ) ;
#185 = CARTESIAN_POINT ( 'NONE',  ( 2.513866563967056016E-13, -8.817456953860941711E-15, 72.00000000000000000 ) ) ;
#186 = CC_DESIGN_PERSON_AND_ORGANIZATION_ASSIGNMENT ( #5, #32, ( #112 ) ) ;
#187 = AXIS2_PLACEMENT_3D ( 'NONE', #28, #203, #103 ) ;
#188 = APPLICATION_PROTOCOL_DEFINITION ( 'international standard', 'config_control_design', 1994, #114 ) ;
#189 = AXIS2_PLACEMENT_3D ( 'NONE', #70, #6, #24 ) ;
#190 = CALENDAR_DATE ( 2021, 15, 11 ) ;
#191 = DATE_TIME_ROLE ( 'creation_date' ) ;
#192 = EDGE_CURVE ( 'NONE', #123, #123, #110, .T. ) ;
#193 = AXIS2_PLACEMENT_3D ( 'NONE', #40, #102, #66 ) ;
#194 = DIRECTION ( 'NONE',  ( -3.491481338843133355E-15, 1.224646799147353207E-16, -1.000000000000000000 ) ) ;
#195 = DIRECTION ( 'NONE',  ( 0.0000000000000000000, 1.000000000000000000, 0.0000000000000000000 ) ) ;
#196 = ADVANCED_FACE ( 'NONE', ( #99 ), #169, .F. ) ;
#197 = EDGE_LOOP ( 'NONE', ( #78 ) ) ;
#198 = DIRECTION ( 'NONE',  ( -3.491481338843133355E-15, 1.224646799147353207E-16, -1.000000000000000000 ) ) ;
#199 = CC_DESIGN_PERSON_AND_ORGANIZATION_ASSIGNMENT ( #87, #29, ( #163 ) ) ;
#200 = FACE_OUTER_BOUND ( 'NONE', #179, .T. ) ;
#201 = PERSON_AND_ORGANIZATION_ROLE ( 'design_supplier' ) ;
#202 = AXIS2_PLACEMENT_3D ( 'NONE', #37, #80, #149 ) ;
#203 = DIRECTION ( 'NONE',  ( 0.0000000000000000000, 0.0000000000000000000, 1.000000000000000000 ) ) ;
ENDSEC;
END-ISO-10303-21;
