ISO-10303-21;
HEADER;
FILE_DESCRIPTION (( 'STEP AP203' ),
    '1' );
FILE_NAME ('57246.step',
    '2021-11-15T14:47:04',
    ( '' ),
    ( '' ),
    'SwSTEP 2.0',
    'SolidWorks 2019',
    '' );
FILE_SCHEMA (( 'CONFIG_CONTROL_DESIGN' ));
ENDSEC;

DATA;
#1 = ADVANCED_FACE ( 'NONE', ( #20, #69 ), #80, .T. ) ;
#2 = EDGE_LOOP ( 'NONE', ( #6 ) ) ;
#3 = FACE_OUTER_BOUND ( 'NONE', #41, .T. ) ;
#4 = CIRCLE ( 'NONE', #154, 4.500000000000000000 ) ;
#5 = MANIFOLD_SOLID_BREP ( 'Corps-Déplacer/Copier1[1]', #100 ) ;
#6 = ORIENTED_EDGE ( 'NONE', *, *, #64, .T. ) ;
#7 = PERSON_AND_ORGANIZATION_ROLE ( 'creator' ) ;
#8 = PERSON_AND_ORGANIZATION ( #10, #216 ) ;
#9 = LOCAL_TIME ( 15, 47, 4.000000000000000000, #194 ) ;
#10 = PERSON ( 'UNSPECIFIED', 'UNSPECIFIED', 'UNSPECIFIED', ('UNSPECIFIED'), ('UNSPECIFIED'), ('UNSPECIFIED') ) ;
#11 = COORDINATED_UNIVERSAL_TIME_OFFSET ( 1, 0, .AHEAD. ) ;
#12 = VERTEX_POINT ( 'NONE', #150 ) ;
#13 = FACE_OUTER_BOUND ( 'NONE', #42, .T. ) ;
#14 = APPROVAL_DATE_TIME ( #130, #196 ) ;
#15 = ADVANCED_FACE ( 'NONE', ( #66 ), #156, .F. ) ;
#16 = CARTESIAN_POINT ( 'NONE',  ( 6.633814543801952113E-14, -4.500000000000002665, 19.00000000000000000 ) ) ;
#17 = VERTEX_POINT ( 'NONE', #117 ) ;
#18 = CC_DESIGN_PERSON_AND_ORGANIZATION_ASSIGNMENT ( #8, #92, ( #113 ) ) ;
#19 = VERTEX_POINT ( 'NONE', #153 ) ;
#20 = FACE_OUTER_BOUND ( 'NONE', #138, .T. ) ;
#21 = LOCAL_TIME ( 15, 47, 4.000000000000000000, #27 ) ;
#22 = EDGE_CURVE ( 'NONE', #12, #12, #32, .T. ) ;
#23 =( GEOMETRIC_REPRESENTATION_CONTEXT ( 3 ) GLOBAL_UNCERTAINTY_ASSIGNED_CONTEXT ( ( #46 ) ) GLOBAL_UNIT_ASSIGNED_CONTEXT ( ( #188, #139, #63 ) ) REPRESENTATION_CONTEXT ( 'NONE', 'WORKASPACE' ) );
#24 = CYLINDRICAL_SURFACE ( 'NONE', #78, 4.500000000000000000 ) ;
#25 = APPROVAL_STATUS ( 'not_yet_approved' ) ;
#26 = CARTESIAN_POINT ( 'NONE',  ( 6.633814543801952113E-14, -2.365492663037771232E-15, 19.00000000000000000 ) ) ;
#27 = COORDINATED_UNIVERSAL_TIME_OFFSET ( 1, 0, .AHEAD. ) ;
#28 = CALENDAR_DATE ( 2021, 15, 11 ) ;
#29 = PRODUCT_DEFINITION ( 'UNKNOWN', '', #113, #106 ) ;
#30 = AXIS2_PLACEMENT_3D ( 'NONE', #74, #133, #37 ) ;
#31 = VERTEX_POINT ( 'NONE', #43 ) ;
#32 = CIRCLE ( 'NONE', #65, 4.500000000000000888 ) ;
#33 = CARTESIAN_POINT ( 'NONE',  ( 6.633814543801952113E-14, 3.749399456654636904E-32, 19.00000000000000000 ) ) ;
#34 = EDGE_LOOP ( 'NONE', ( #122 ) ) ;
#35 = FACE_OUTER_BOUND ( 'NONE', #119, .T. ) ;
#36 = COORDINATED_UNIVERSAL_TIME_OFFSET ( 1, 0, .AHEAD. ) ;
#37 = DIRECTION ( 'NONE',  ( -4.275831445896958607E-31, -1.000000000000000000, -1.224646799147353207E-16 ) ) ;
#38 = CALENDAR_DATE ( 2021, 15, 11 ) ;
#39 = LOCAL_TIME ( 15, 47, 4.000000000000000000, #11 ) ;
#40 = CC_DESIGN_APPROVAL ( #196, ( #223 ) ) ;
#41 = EDGE_LOOP ( 'NONE', ( #204 ) ) ;
#42 = EDGE_LOOP ( 'NONE', ( #173 ) ) ;
#43 = CARTESIAN_POINT ( 'NONE',  ( -3.912192705868449148E-30, -4.500000000000000000, -1.120496524596839026E-15 ) ) ;
#44 = MECHANICAL_CONTEXT ( 'NONE', #120, 'mechanical' ) ;
#45 = APPROVAL_PERSON_ORGANIZATION ( #179, #96, #210 ) ;
#46 = UNCERTAINTY_MEASURE_WITH_UNIT (LENGTH_MEASURE( 1.000000000000000082E-05 ), #188, 'distance_accuracy_value', 'NONE');
#47 = CARTESIAN_POINT ( 'NONE',  ( 0.0000000000000000000, 0.0000000000000000000, 0.0000000000000000000 ) ) ;
#48 = AXIS2_PLACEMENT_3D ( 'NONE', #56, #200, #161 ) ;
#49 = CARTESIAN_POINT ( 'NONE',  ( 2.513866563967056016E-13, -8.817456953860941711E-15, 72.00000000000000000 ) ) ;
#50 = PERSON_AND_ORGANIZATION ( #10, #216 ) ;
#51 = ADVANCED_FACE ( 'NONE', ( #3 ), #84, .T. ) ;
#52 = DATE_TIME_ROLE ( 'classification_date' ) ;
#53 = CARTESIAN_POINT ( 'NONE',  ( 7.605801812396794830E-14, -2.081315732550427583E-15, 21.78388218141500587 ) ) ;
#54 = AXIS2_PLACEMENT_3D ( 'NONE', #26, #93, #164 ) ;
#55 = CARTESIAN_POINT ( 'NONE',  ( 2.513866563967056016E-13, -8.817456953860941711E-15, 72.00000000000000000 ) ) ;
#56 = CARTESIAN_POINT ( 'NONE',  ( 2.496409157272839907E-13, -8.756224613903572559E-15, 71.49999999999998579 ) ) ;
#57 = FACE_OUTER_BOUND ( 'NONE', #79, .T. ) ;
#58 = AXIS2_PLACEMENT_3D ( 'NONE', #95, #59, #131 ) ;
#59 = DIRECTION ( 'NONE',  ( 3.491481338843133355E-15, -1.244996138440932305E-16, 1.000000000000000000 ) ) ;
#60 = EDGE_LOOP ( 'NONE', ( #169 ) ) ;
#61 = CC_DESIGN_APPROVAL ( #67, ( #113 ) ) ;
#62 = ORIENTED_EDGE ( 'NONE', *, *, #83, .T. ) ;
#63 =( NAMED_UNIT ( * ) SI_UNIT ( $, .STERADIAN. ) SOLID_ANGLE_UNIT ( ) );
#64 = EDGE_CURVE ( 'NONE', #17, #17, #221, .T. ) ;
#65 = AXIS2_PLACEMENT_3D ( 'NONE', #49, #191, #105 ) ;
#66 = FACE_OUTER_BOUND ( 'NONE', #86, .T. ) ;
#67 = APPROVAL ( #25, 'UNSPECIFIED' ) ;
#68 = APPROVAL_PERSON_ORGANIZATION ( #110, #196, #163 ) ;
#69 = FACE_OUTER_BOUND ( 'NONE', #207, .T. ) ;
#70 = DIRECTION ( 'NONE',  ( 3.491481338843133355E-15, -1.244996138440932305E-16, 1.000000000000000000 ) ) ;
#71 = DATE_AND_TIME ( #165, #39 ) ;
#72 = PRODUCT_DEFINITION_SHAPE ( 'NONE', 'NONE',  #29 ) ;
#73 = DIRECTION ( 'NONE',  ( -3.491481338843133355E-15, 1.224646799147353207E-16, -1.000000000000000000 ) ) ;
#74 = CARTESIAN_POINT ( 'NONE',  ( -8.551702076470480934E-31, 2.999533309458101739E-32, -2.449304821232125005E-16 ) ) ;
#75 = AXIS2_PLACEMENT_3D ( 'NONE', #208, #206, #174 ) ;
#76 = ADVANCED_FACE ( 'NONE', ( #35, #198 ), #24, .T. ) ;
#77 = EDGE_LOOP ( 'NONE', ( #160 ) ) ;
#78 = AXIS2_PLACEMENT_3D ( 'NONE', #201, #70, #185 ) ;
#79 = EDGE_LOOP ( 'NONE', ( #212 ) ) ;
#80 = CYLINDRICAL_SURFACE ( 'NONE', #104, 4.999999999999997335 ) ;
#81 = DIRECTION ( 'NONE',  ( -4.275831445896958607E-31, -1.000000000000000000, -1.224646799147353207E-16 ) ) ;
#82 = PERSON_AND_ORGANIZATION_ROLE ( 'design_owner' ) ;
#83 = EDGE_CURVE ( 'NONE', #31, #31, #4, .T. ) ;
#84 = PLANE ( 'NONE',  #132 ) ;
#85 = CIRCLE ( 'NONE', #54, 4.500000000000000000 ) ;
#86 = EDGE_LOOP ( 'NONE', ( #107 ) ) ;
#87 = ADVANCED_FACE ( 'NONE', ( #183, #115 ), #158, .F. ) ;
#88 = CARTESIAN_POINT ( 'NONE',  ( -1.956096352934224574E-30, 6.975069231297747795E-32, -5.602482622984195128E-16 ) ) ;
#89 = PERSON_AND_ORGANIZATION ( #10, #216 ) ;
#90 = DIRECTION ( 'NONE',  ( 3.491481338843133355E-15, -1.244996138440932305E-16, 1.000000000000000000 ) ) ;
#91 = AXIS2_PLACEMENT_3D ( 'NONE', #166, #73, #220 ) ;
#92 = PERSON_AND_ORGANIZATION_ROLE ( 'creator' ) ;
#93 = DIRECTION ( 'NONE',  ( 3.491481338843133355E-15, -1.244996138440932305E-16, 1.000000000000000000 ) ) ;
#94 = SECURITY_CLASSIFICATION_LEVEL ( 'unclassified' ) ;
#95 = CARTESIAN_POINT ( 'NONE',  ( 6.633814543801952113E-14, -1.734723475976807094E-15, 19.00000000000000000 ) ) ;
#96 = APPROVAL ( #141, 'UNSPECIFIED' ) ;
#97 = APPROVAL_ROLE ( '' ) ;
#98 = VERTEX_POINT ( 'NONE', #16 ) ;
#99 = ADVANCED_BREP_SHAPE_REPRESENTATION ( '57246', ( #5, #159, #75 ), #23 ) ;
#100 = CLOSED_SHELL ( 'NONE', ( #1, #193, #168, #87, #15 ) ) ;
#101 = APPLICATION_PROTOCOL_DEFINITION ( 'international standard', 'config_control_design', 1994, #120 ) ;
#102 = PRODUCT_RELATED_PRODUCT_CATEGORY ( 'detail', '', ( #205 ) ) ;
#103 = DIRECTION ( 'NONE',  ( 3.491481338843133355E-15, -1.224646799147353207E-16, 1.000000000000000000 ) ) ;
#104 = AXIS2_PLACEMENT_3D ( 'NONE', #47, #121, #172 ) ;
#105 = DIRECTION ( 'NONE',  ( 0.0000000000000000000, 1.000000000000000000, 0.0000000000000000000 ) ) ;
#106 = DESIGN_CONTEXT ( 'detailed design', #144, 'design' ) ;
#107 = ORIENTED_EDGE ( 'NONE', *, *, #209, .F. ) ;
#108 = CC_DESIGN_APPROVAL ( #96, ( #29 ) ) ;
#109 = LOCAL_TIME ( 15, 47, 4.000000000000000000, #36 ) ;
#110 = PERSON_AND_ORGANIZATION ( #10, #216 ) ;
#111 = EDGE_LOOP ( 'NONE', ( #137 ) ) ;
#112 = DIRECTION ( 'NONE',  ( 0.0000000000000000000, 1.000000000000000000, 0.0000000000000000000 ) ) ;
#113 = PRODUCT_DEFINITION_FORMATION_WITH_SPECIFIED_SOURCE ( 'ANY', '', #205, .NOT_KNOWN. ) ;
#114 = APPROVAL_DATE_TIME ( #197, #67 ) ;
#115 = FACE_OUTER_BOUND ( 'NONE', #2, .T. ) ;
#116 = CC_DESIGN_PERSON_AND_ORGANIZATION_ASSIGNMENT ( #178, #181, ( #113 ) ) ;
#117 = CARTESIAN_POINT ( 'NONE',  ( 7.605801812396794830E-14, 4.999999999999995559, 21.78388218141500587 ) ) ;
#118 = CARTESIAN_POINT ( 'NONE',  ( 2.496409157272839907E-13, 4.999999999999992006, 71.49999999999998579 ) ) ;
#119 = EDGE_LOOP ( 'NONE', ( #62 ) ) ;
#120 = APPLICATION_CONTEXT ( 'configuration controlled 3d designs of mechanical parts and assemblies' ) ;
#121 = DIRECTION ( 'NONE',  ( -3.491481338843133355E-15, 1.224646799147353207E-16, -1.000000000000000000 ) ) ;
#122 = ORIENTED_EDGE ( 'NONE', *, *, #22, .T. ) ;
#123 = LOCAL_TIME ( 15, 47, 4.000000000000000000, #217 ) ;
#124 = APPROVAL_DATE_TIME ( #184, #96 ) ;
#125 = DIRECTION ( 'NONE',  ( -3.491481338843133355E-15, 1.244996138440932305E-16, -1.000000000000000000 ) ) ;
#126 = CALENDAR_DATE ( 2021, 15, 11 ) ;
#127 = DIRECTION ( 'NONE',  ( -3.491481338843133355E-15, 1.224646799147353207E-16, -1.000000000000000000 ) ) ;
#128 = SHAPE_DEFINITION_REPRESENTATION ( #72, #99 ) ;
#129 = CC_DESIGN_DATE_AND_TIME_ASSIGNMENT ( #199, #152, ( #29 ) ) ;
#130 = DATE_AND_TIME ( #38, #123 ) ;
#131 = DIRECTION ( 'NONE',  ( -4.450511201481729313E-31, -1.000000000000000000, -1.244996138440932305E-16 ) ) ;
#132 = AXIS2_PLACEMENT_3D ( 'NONE', #142, #143, #213 ) ;
#133 = DIRECTION ( 'NONE',  ( 3.491481338843133355E-15, -1.224646799147353207E-16, 1.000000000000000000 ) ) ;
#134 = PLANE ( 'NONE',  #30 ) ;
#135 = CC_DESIGN_PERSON_AND_ORGANIZATION_ASSIGNMENT ( #162, #7, ( #29 ) ) ;
#136 = AXIS2_PLACEMENT_3D ( 'NONE', #53, #125, #195 ) ;
#137 = ORIENTED_EDGE ( 'NONE', *, *, #222, .F. ) ;
#138 = EDGE_LOOP ( 'NONE', ( #190 ) ) ;
#139 =( NAMED_UNIT ( * ) PLANE_ANGLE_UNIT ( ) SI_UNIT ( $, .RADIAN. ) );
#140 = ORIENTED_EDGE ( 'NONE', *, *, #64, .F. ) ;
#141 = APPROVAL_STATUS ( 'not_yet_approved' ) ;
#142 = CARTESIAN_POINT ( 'NONE',  ( 6.633814543801952113E-14, 3.749399456654636904E-32, 19.00000000000000000 ) ) ;
#143 = DIRECTION ( 'NONE',  ( 3.491481338843133355E-15, -1.224646799147353207E-16, 1.000000000000000000 ) ) ;
#144 = APPLICATION_CONTEXT ( 'configuration controlled 3d designs of mechanical parts and assemblies' ) ;
#145 = APPROVAL_PERSON_ORGANIZATION ( #89, #67, #97 ) ;
#146 = APPROVAL_STATUS ( 'not_yet_approved' ) ;
#147 = DIRECTION ( 'NONE',  ( 3.491481338843133355E-15, -1.244996138440932305E-16, 1.000000000000000000 ) ) ;
#148 = EDGE_CURVE ( 'NONE', #170, #170, #192, .T. ) ;
#149 = PERSON_AND_ORGANIZATION_ROLE ( 'classification_officer' ) ;
#150 = CARTESIAN_POINT ( 'NONE',  ( 2.513866563967056016E-13, 4.499999999999992006, 72.00000000000000000 ) ) ;
#151 = PLANE ( 'NONE',  #91 ) ;
#152 = DATE_TIME_ROLE ( 'creation_date' ) ;
#153 = CARTESIAN_POINT ( 'NONE',  ( 6.633814543801952113E-14, -4.500000000000002665, 19.00000000000000000 ) ) ;
#154 = AXIS2_PLACEMENT_3D ( 'NONE', #88, #147, #218 ) ;
#155 = CIRCLE ( 'NONE', #211, 4.500000000000000000 ) ;
#156 = PLANE ( 'NONE',  #176 ) ;
#157 = APPLICATION_PROTOCOL_DEFINITION ( 'international standard', 'config_control_design', 1994, #144 ) ;
#158 = TOROIDAL_SURFACE ( 'NONE', #58, 12.49999999999999822, 8.000000000000000000 ) ;
#159 = MANIFOLD_SOLID_BREP ( 'Corps-Déplacer/Copier1[2]', #203 ) ;
#160 = ORIENTED_EDGE ( 'NONE', *, *, #148, .F. ) ;
#161 = DIRECTION ( 'NONE',  ( 0.0000000000000000000, 1.000000000000000000, 0.0000000000000000000 ) ) ;
#162 = PERSON_AND_ORGANIZATION ( #10, #216 ) ;
#163 = APPROVAL_ROLE ( '' ) ;
#164 = DIRECTION ( 'NONE',  ( 0.0000000000000000000, -1.000000000000000000, 0.0000000000000000000 ) ) ;
#165 = CALENDAR_DATE ( 2021, 15, 11 ) ;
#166 = CARTESIAN_POINT ( 'NONE',  ( 2.513866563967056016E-13, 3.374459510989167028E-32, 72.00000000000000000 ) ) ;
#167 = CALENDAR_DATE ( 2021, 15, 11 ) ;
#168 = ADVANCED_FACE ( 'NONE', ( #13 ), #151, .F. ) ;
#169 = ORIENTED_EDGE ( 'NONE', *, *, #209, .T. ) ;
#170 = VERTEX_POINT ( 'NONE', #118 ) ;
#171 = ADVANCED_FACE ( 'NONE', ( #57 ), #134, .F. ) ;
#172 = DIRECTION ( 'NONE',  ( 4.275831445896959482E-31, 1.000000000000000000, 1.224646799147353207E-16 ) ) ;
#173 = ORIENTED_EDGE ( 'NONE', *, *, #22, .F. ) ;
#174 = DIRECTION ( 'NONE',  ( 1.000000000000000000, 0.0000000000000000000, 0.0000000000000000000 ) ) ;
#175 = CC_DESIGN_PERSON_AND_ORGANIZATION_ASSIGNMENT ( #219, #149, ( #223 ) ) ;
#176 = AXIS2_PLACEMENT_3D ( 'NONE', #33, #103, #81 ) ;
#177 = CC_DESIGN_SECURITY_CLASSIFICATION ( #223, ( #113 ) ) ;
#178 = PERSON_AND_ORGANIZATION ( #10, #216 ) ;
#179 = PERSON_AND_ORGANIZATION ( #10, #216 ) ;
#180 = CARTESIAN_POINT ( 'NONE',  ( 6.633814543801952113E-14, -2.365492663037771232E-15, 19.00000000000000000 ) ) ;
#181 = PERSON_AND_ORGANIZATION_ROLE ( 'design_supplier' ) ;
#182 = DIRECTION ( 'NONE',  ( 0.0000000000000000000, -1.000000000000000000, 0.0000000000000000000 ) ) ;
#183 = FACE_OUTER_BOUND ( 'NONE', #60, .T. ) ;
#184 = DATE_AND_TIME ( #28, #109 ) ;
#185 = DIRECTION ( 'NONE',  ( -4.346880784298277610E-31, -1.000000000000000000, -1.244996138440932305E-16 ) ) ;
#186 = CC_DESIGN_PERSON_AND_ORGANIZATION_ASSIGNMENT ( #50, #82, ( #205 ) ) ;
#187 = AXIS2_PLACEMENT_3D ( 'NONE', #55, #127, #112 ) ;
#188 =( LENGTH_UNIT ( ) NAMED_UNIT ( * ) SI_UNIT ( .MILLI., .METRE. ) );
#189 = CONICAL_SURFACE ( 'NONE', #187, 4.500000000000000888, 0.7853981633974344012 ) ;
#190 = ORIENTED_EDGE ( 'NONE', *, *, #148, .T. ) ;
#191 = DIRECTION ( 'NONE',  ( -3.491481338843133355E-15, 1.224646799147353207E-16, -1.000000000000000000 ) ) ;
#192 = CIRCLE ( 'NONE', #48, 5.000000000000000888 ) ;
#193 = ADVANCED_FACE ( 'NONE', ( #215, #202 ), #189, .T. ) ;
#194 = COORDINATED_UNIVERSAL_TIME_OFFSET ( 1, 0, .AHEAD. ) ;
#195 = DIRECTION ( 'NONE',  ( 0.0000000000000000000, 1.000000000000000000, 0.0000000000000000000 ) ) ;
#196 = APPROVAL ( #146, 'UNSPECIFIED' ) ;
#197 = DATE_AND_TIME ( #167, #9 ) ;
#198 = FACE_OUTER_BOUND ( 'NONE', #111, .T. ) ;
#199 = DATE_AND_TIME ( #126, #21 ) ;
#200 = DIRECTION ( 'NONE',  ( -3.491481338843133355E-15, 1.224646799147353207E-16, -1.000000000000000000 ) ) ;
#201 = CARTESIAN_POINT ( 'NONE',  ( 0.0000000000000000000, 0.0000000000000000000, 0.0000000000000000000 ) ) ;
#202 = FACE_BOUND ( 'NONE', #34, .T. ) ;
#203 = CLOSED_SHELL ( 'NONE', ( #51, #76, #171 ) ) ;
#204 = ORIENTED_EDGE ( 'NONE', *, *, #222, .T. ) ;
#205 = PRODUCT ( '57246', '57246', '', ( #44 ) ) ;
#206 = DIRECTION ( 'NONE',  ( 0.0000000000000000000, 0.0000000000000000000, 1.000000000000000000 ) ) ;
#207 = EDGE_LOOP ( 'NONE', ( #140 ) ) ;
#208 = CARTESIAN_POINT ( 'NONE',  ( 0.0000000000000000000, 0.0000000000000000000, 0.0000000000000000000 ) ) ;
#209 = EDGE_CURVE ( 'NONE', #19, #19, #155, .T. ) ;
#210 = APPROVAL_ROLE ( '' ) ;
#211 = AXIS2_PLACEMENT_3D ( 'NONE', #180, #90, #182 ) ;
#212 = ORIENTED_EDGE ( 'NONE', *, *, #83, .F. ) ;
#213 = DIRECTION ( 'NONE',  ( -4.275831445896958607E-31, -1.000000000000000000, -1.224646799147353207E-16 ) ) ;
#214 = CC_DESIGN_DATE_AND_TIME_ASSIGNMENT ( #71, #52, ( #223 ) ) ;
#215 = FACE_OUTER_BOUND ( 'NONE', #77, .T. ) ;
#216 = ORGANIZATION ( 'UNSPECIFIED', 'UNSPECIFIED', '' ) ;
#217 = COORDINATED_UNIVERSAL_TIME_OFFSET ( 1, 0, .AHEAD. ) ;
#218 = DIRECTION ( 'NONE',  ( -4.346880784298276734E-31, -1.000000000000000000, -1.244996138440932305E-16 ) ) ;
#219 = PERSON_AND_ORGANIZATION ( #10, #216 ) ;
#220 = DIRECTION ( 'NONE',  ( 4.275831445896958607E-31, 1.000000000000000000, 1.224646799147353207E-16 ) ) ;
#221 = CIRCLE ( 'NONE', #136, 4.999999999999997335 ) ;
#222 = EDGE_CURVE ( 'NONE', #98, #98, #85, .T. ) ;
#223 = SECURITY_CLASSIFICATION ( '', '', #94 ) ;
ENDSEC;
END-ISO-10303-21;
