ISO-10303-21;
HEADER;
FILE_DESCRIPTION (( 'STEP AP203' ),
    '1' );
FILE_NAME ('57245.step',
    '2021-11-15T14:47:04',
    ( '' ),
    ( '' ),
    'SwSTEP 2.0',
    'SolidWorks 2019',
    '' );
FILE_SCHEMA (( 'CONFIG_CONTROL_DESIGN' ));
ENDSEC;

DATA;
#1 = PERSON_AND_ORGANIZATION ( #56, #26 ) ;
#2 = PRODUCT_DEFINITION_FORMATION_WITH_SPECIFIED_SOURCE ( 'ANY', '', #51, .NOT_KNOWN. ) ;
#3 = AXIS2_PLACEMENT_3D ( 'NONE', #118, #38, #176 ) ;
#4 = DIRECTION ( 'NONE',  ( 3.491481338843133355E-15, -1.224646799147353207E-16, 1.000000000000000000 ) ) ;
#5 = EDGE_LOOP ( 'NONE', ( #145 ) ) ;
#6 = APPROVAL_PERSON_ORGANIZATION ( #178, #15, #37 ) ;
#7 = APPROVAL ( #54, 'UNSPECIFIED' ) ;
#8 = MANIFOLD_SOLID_BREP ( 'Corps-Déplacer/Copier1[1]', #23 ) ;
#9 = ADVANCED_FACE ( 'NONE', ( #142, #45 ), #202, .T. ) ;
#10 = CARTESIAN_POINT ( 'NONE',  ( 6.633814543801952113E-14, 2.999519565323708100E-32, 19.00000000000000000 ) ) ;
#11 = CALENDAR_DATE ( 2021, 15, 11 ) ;
#12 = PERSON_AND_ORGANIZATION_ROLE ( 'design_supplier' ) ;
#13 = CARTESIAN_POINT ( 'NONE',  ( 6.633814543801952113E-14, 3.999999999999993339, 19.00000000000000000 ) ) ;
#14 = VERTEX_POINT ( 'NONE', #16 ) ;
#15 = APPROVAL ( #119, 'UNSPECIFIED' ) ;
#16 = CARTESIAN_POINT ( 'NONE',  ( 6.633814543801952113E-14, 3.999999999999993339, 19.00000000000000000 ) ) ;
#17 = EDGE_LOOP ( 'NONE', ( #72 ) ) ;
#18 = FACE_OUTER_BOUND ( 'NONE', #90, .T. ) ;
#19 = ORIENTED_EDGE ( 'NONE', *, *, #188, .F. ) ;
#20 = LOCAL_TIME ( 15, 47, 4.000000000000000000, #107 ) ;
#21 = CARTESIAN_POINT ( 'NONE',  ( 6.633814543801952113E-14, -2.326828918379970970E-15, 19.00000000000000000 ) ) ;
#22 = DIRECTION ( 'NONE',  ( -3.491481338843133355E-15, 1.224646799147353207E-16, -1.000000000000000000 ) ) ;
#23 = CLOSED_SHELL ( 'NONE', ( #77, #116, #9, #170 ) ) ;
#24 = CIRCLE ( 'NONE', #200, 3.999999999999995559 ) ;
#25 = PRODUCT_RELATED_PRODUCT_CATEGORY ( 'detail', '', ( #51 ) ) ;
#26 = ORGANIZATION ( 'UNSPECIFIED', 'UNSPECIFIED', '' ) ;
#27 = PERSON_AND_ORGANIZATION ( #56, #26 ) ;
#28 = APPLICATION_PROTOCOL_DEFINITION ( 'international standard', 'config_control_design', 1994, #189 ) ;
#29 = CALENDAR_DATE ( 2021, 15, 11 ) ;
#30 = VERTEX_POINT ( 'NONE', #179 ) ;
#31 = CC_DESIGN_APPROVAL ( #15, ( #89 ) ) ;
#32 = CARTESIAN_POINT ( 'NONE',  ( 2.199633243471174140E-13, -7.715274834628325378E-15, 63.00000000000000000 ) ) ;
#33 = AXIS2_PLACEMENT_3D ( 'NONE', #96, #131, #44 ) ;
#34 = APPROVAL_DATE_TIME ( #186, #194 ) ;
#35 = DIRECTION ( 'NONE',  ( 4.275831445896958607E-31, 1.000000000000000000, 1.224646799147353207E-16 ) ) ;
#36 = CIRCLE ( 'NONE', #190, 4.000000000000000888 ) ;
#37 = APPROVAL_ROLE ( '' ) ;
#38 = DIRECTION ( 'NONE',  ( -3.491481338843133355E-15, 1.224646799147353207E-16, -1.000000000000000000 ) ) ;
#39 = PERSON_AND_ORGANIZATION ( #56, #26 ) ;
#40 = COORDINATED_UNIVERSAL_TIME_OFFSET ( 1, 0, .AHEAD. ) ;
#41 = UNCERTAINTY_MEASURE_WITH_UNIT (LENGTH_MEASURE( 1.000000000000000082E-05 ), #137, 'distance_accuracy_value', 'NONE');
#42 = CIRCLE ( 'NONE', #158, 3.999999999999993339 ) ;
#43 = DATE_AND_TIME ( #191, #183 ) ;
#44 = DIRECTION ( 'NONE',  ( -4.275831445896958607E-31, -1.000000000000000000, -1.224646799147353207E-16 ) ) ;
#45 = FACE_BOUND ( 'NONE', #197, .T. ) ;
#46 = CARTESIAN_POINT ( 'NONE',  ( -1.282757270704401027E-30, 4.499306836254348060E-32, -3.673962843316898528E-16 ) ) ;
#47 = APPROVAL_PERSON_ORGANIZATION ( #1, #7, #85 ) ;
#48 = ORIENTED_EDGE ( 'NONE', *, *, #57, .T. ) ;
#49 = AXIS2_PLACEMENT_3D ( 'NONE', #91, #168, #184 ) ;
#50 = EDGE_CURVE ( 'NONE', #125, #125, #42, .T. ) ;
#51 = PRODUCT ( '57245', '57245', '', ( #135 ) ) ;
#52 = AXIS2_PLACEMENT_3D ( 'NONE', #10, #70, #180 ) ;
#53 = DIRECTION ( 'NONE',  ( -3.491481338843133355E-15, 1.224646799147353207E-16, -1.000000000000000000 ) ) ;
#54 = APPROVAL_STATUS ( 'not_yet_approved' ) ;
#55 =( NAMED_UNIT ( * ) SI_UNIT ( $, .STERADIAN. ) SOLID_ANGLE_UNIT ( ) );
#56 = PERSON ( 'UNSPECIFIED', 'UNSPECIFIED', 'UNSPECIFIED', ('UNSPECIFIED'), ('UNSPECIFIED'), ('UNSPECIFIED') ) ;
#57 = EDGE_CURVE ( 'NONE', #14, #14, #24, .T. ) ;
#58 = AXIS2_PLACEMENT_3D ( 'NONE', #147, #53, #136 ) ;
#59 = ORIENTED_EDGE ( 'NONE', *, *, #50, .T. ) ;
#60 = EDGE_LOOP ( 'NONE', ( #59 ) ) ;
#61 = ADVANCED_FACE ( 'NONE', ( #95 ), #172, .F. ) ;
#62 = ORIENTED_EDGE ( 'NONE', *, *, #79, .F. ) ;
#63 = FACE_OUTER_BOUND ( 'NONE', #174, .T. ) ;
#64 = CIRCLE ( 'NONE', #115, 3.999999999999995559 ) ;
#65 = CC_DESIGN_DATE_AND_TIME_ASSIGNMENT ( #43, #157, ( #103 ) ) ;
#66 = EDGE_CURVE ( 'NONE', #182, #182, #36, .T. ) ;
#67 = PERSON_AND_ORGANIZATION_ROLE ( 'classification_officer' ) ;
#68 = DIRECTION ( 'NONE',  ( 0.0000000000000000000, 1.000000000000000000, 0.0000000000000000000 ) ) ;
#69 = CLOSED_SHELL ( 'NONE', ( #61, #199, #163 ) ) ;
#70 = DIRECTION ( 'NONE',  ( 3.491481338843133355E-15, -1.224646799147353207E-16, 1.000000000000000000 ) ) ;
#71 = MANIFOLD_SOLID_BREP ( 'Corps-Déplacer/Copier1[2]', #69 ) ;
#72 = ORIENTED_EDGE ( 'NONE', *, *, #66, .F. ) ;
#73 = PERSON_AND_ORGANIZATION ( #56, #26 ) ;
#74 = PLANE ( 'NONE',  #169 ) ;
#75 = ORIENTED_EDGE ( 'NONE', *, *, #57, .F. ) ;
#76 = DIRECTION ( 'NONE',  ( -4.275831445896958607E-31, -1.000000000000000000, -1.224646799147353207E-16 ) ) ;
#77 = ADVANCED_FACE ( 'NONE', ( #162 ), #81, .F. ) ;
#78 = LOCAL_TIME ( 15, 47, 4.000000000000000000, #40 ) ;
#79 = EDGE_CURVE ( 'NONE', #30, #30, #92, .T. ) ;
#80 = COORDINATED_UNIVERSAL_TIME_OFFSET ( 1, 0, .AHEAD. ) ;
#81 = PLANE ( 'NONE',  #52 ) ;
#82 = CC_DESIGN_APPROVAL ( #194, ( #103 ) ) ;
#83 = SECURITY_CLASSIFICATION_LEVEL ( 'unclassified' ) ;
#84 =( NAMED_UNIT ( * ) PLANE_ANGLE_UNIT ( ) SI_UNIT ( $, .RADIAN. ) );
#85 = APPROVAL_ROLE ( '' ) ;
#86 = APPLICATION_PROTOCOL_DEFINITION ( 'international standard', 'config_control_design', 1994, #181 ) ;
#87 = SHAPE_DEFINITION_REPRESENTATION ( #177, #151 ) ;
#88 = VERTEX_POINT ( 'NONE', #13 ) ;
#89 = SECURITY_CLASSIFICATION ( '', '', #83 ) ;
#90 = EDGE_LOOP ( 'NONE', ( #19 ) ) ;
#91 = CARTESIAN_POINT ( 'NONE',  ( 0.0000000000000000000, 0.0000000000000000000, 0.0000000000000000000 ) ) ;
#92 = CIRCLE ( 'NONE', #3, 3.500000000000001332 ) ;
#93 = ORIENTED_EDGE ( 'NONE', *, *, #79, .T. ) ;
#94 = DIRECTION ( 'NONE',  ( -3.491481338843133355E-15, 1.224646799147353207E-16, -1.000000000000000000 ) ) ;
#95 = FACE_OUTER_BOUND ( 'NONE', #60, .T. ) ;
#96 = CARTESIAN_POINT ( 'NONE',  ( 6.633814543801952113E-14, 2.999519565323708100E-32, 19.00000000000000000 ) ) ;
#97 = AXIS2_PLACEMENT_3D ( 'NONE', #32, #195, #110 ) ;
#98 = EDGE_LOOP ( 'NONE', ( #48 ) ) ;
#99 = CARTESIAN_POINT ( 'NONE',  ( 6.633814543801952113E-14, -2.326828918379970970E-15, 19.00000000000000000 ) ) ;
#100 = DIRECTION ( 'NONE',  ( 0.0000000000000000000, 1.000000000000000000, 0.0000000000000000000 ) ) ;
#101 = FACE_OUTER_BOUND ( 'NONE', #5, .T. ) ;
#102 = CALENDAR_DATE ( 2021, 15, 11 ) ;
#103 = PRODUCT_DEFINITION ( 'UNKNOWN', '', #2, #167 ) ;
#104 = APPROVAL_STATUS ( 'not_yet_approved' ) ;
#105 = APPROVAL_PERSON_ORGANIZATION ( #39, #194, #134 ) ;
#106 = DATE_AND_TIME ( #102, #78 ) ;
#107 = COORDINATED_UNIVERSAL_TIME_OFFSET ( 1, 0, .AHEAD. ) ;
#108 = CC_DESIGN_SECURITY_CLASSIFICATION ( #89, ( #2 ) ) ;
#109 = CARTESIAN_POINT ( 'NONE',  ( 2.199633243471174140E-13, 2.624579619658240413E-32, 63.00000000000000000 ) ) ;
#110 = DIRECTION ( 'NONE',  ( 0.0000000000000000000, 1.000000000000000000, 0.0000000000000000000 ) ) ;
#111 = CARTESIAN_POINT ( 'NONE',  ( -6.413786353522005134E-31, 2.249653418127174030E-32, -1.836981421658449264E-16 ) ) ;
#112 = DIRECTION ( 'NONE',  ( 0.0000000000000000000, 1.000000000000000000, 0.0000000000000000000 ) ) ;
#113 = FACE_OUTER_BOUND ( 'NONE', #198, .T. ) ;
#114 = APPROVAL_DATE_TIME ( #149, #7 ) ;
#115 = AXIS2_PLACEMENT_3D ( 'NONE', #99, #159, #68 ) ;
#116 = ADVANCED_FACE ( 'NONE', ( #18, #192 ), #152, .T. ) ;
#117 = LOCAL_TIME ( 15, 47, 4.000000000000000000, #80 ) ;
#118 = CARTESIAN_POINT ( 'NONE',  ( 2.199633243471174140E-13, -7.715274834628325378E-15, 63.00000000000000000 ) ) ;
#119 = APPROVAL_STATUS ( 'not_yet_approved' ) ;
#120 = CARTESIAN_POINT ( 'NONE',  ( 4.275753076543795256E-31, 3.999999999999993339, 1.224624353272506412E-16 ) ) ;
#121 = COORDINATED_UNIVERSAL_TIME_OFFSET ( 1, 0, .AHEAD. ) ;
#122 = PERSON_AND_ORGANIZATION_ROLE ( 'design_owner' ) ;
#123 = PERSON_AND_ORGANIZATION_ROLE ( 'creator' ) ;
#124 = CC_DESIGN_PERSON_AND_ORGANIZATION_ASSIGNMENT ( #175, #67, ( #89 ) ) ;
#125 = VERTEX_POINT ( 'NONE', #120 ) ;
#126 = PERSON_AND_ORGANIZATION_ROLE ( 'creator' ) ;
#127 = EDGE_LOOP ( 'NONE', ( #153 ) ) ;
#128 = DIRECTION ( 'NONE',  ( -3.491481338843133355E-15, 1.224646799147353207E-16, -1.000000000000000000 ) ) ;
#129 = AXIS2_PLACEMENT_3D ( 'NONE', #111, #4, #76 ) ;
#130 = DIRECTION ( 'NONE',  ( -3.491481338843133355E-15, 1.224646799147353207E-16, -1.000000000000000000 ) ) ;
#131 = DIRECTION ( 'NONE',  ( 3.491481338843133355E-15, -1.224646799147353207E-16, 1.000000000000000000 ) ) ;
#132 =( GEOMETRIC_REPRESENTATION_CONTEXT ( 3 ) GLOBAL_UNCERTAINTY_ASSIGNED_CONTEXT ( ( #41 ) ) GLOBAL_UNIT_ASSIGNED_CONTEXT ( ( #137, #84, #55 ) ) REPRESENTATION_CONTEXT ( 'NONE', 'WORKASPACE' ) );
#133 = CYLINDRICAL_SURFACE ( 'NONE', #58, 3.999999999999994671 ) ;
#134 = APPROVAL_ROLE ( '' ) ;
#135 = MECHANICAL_CONTEXT ( 'NONE', #189, 'mechanical' ) ;
#136 = DIRECTION ( 'NONE',  ( 4.275831445896959482E-31, 1.000000000000000000, 1.224646799147353454E-16 ) ) ;
#137 =( LENGTH_UNIT ( ) NAMED_UNIT ( * ) SI_UNIT ( .MILLI., .METRE. ) );
#138 = EDGE_LOOP ( 'NONE', ( #193 ) ) ;
#139 = COORDINATED_UNIVERSAL_TIME_OFFSET ( 1, 0, .AHEAD. ) ;
#140 = CC_DESIGN_DATE_AND_TIME_ASSIGNMENT ( #106, #165, ( #89 ) ) ;
#141 = CARTESIAN_POINT ( 'NONE',  ( 2.182175836776958284E-13, -7.654042494670957804E-15, 62.50000000000000000 ) ) ;
#142 = FACE_OUTER_BOUND ( 'NONE', #17, .T. ) ;
#143 = CC_DESIGN_PERSON_AND_ORGANIZATION_ASSIGNMENT ( #164, #12, ( #2 ) ) ;
#144 = PLANE ( 'NONE',  #33 ) ;
#145 = ORIENTED_EDGE ( 'NONE', *, *, #50, .F. ) ;
#146 = FACE_OUTER_BOUND ( 'NONE', #98, .T. ) ;
#147 = CARTESIAN_POINT ( 'NONE',  ( 0.0000000000000000000, 0.0000000000000000000, 0.0000000000000000000 ) ) ;
#148 = CC_DESIGN_PERSON_AND_ORGANIZATION_ASSIGNMENT ( #187, #122, ( #51 ) ) ;
#149 = DATE_AND_TIME ( #11, #161 ) ;
#150 = DATE_AND_TIME ( #29, #117 ) ;
#151 = ADVANCED_BREP_SHAPE_REPRESENTATION ( '57245', ( #8, #71, #49 ), #132 ) ;
#152 = CYLINDRICAL_SURFACE ( 'NONE', #154, 3.999999999999998224 ) ;
#153 = ORIENTED_EDGE ( 'NONE', *, *, #188, .T. ) ;
#154 = AXIS2_PLACEMENT_3D ( 'NONE', #185, #130, #155 ) ;
#155 = DIRECTION ( 'NONE',  ( 4.275831445896958607E-31, 1.000000000000000000, 1.224646799147353207E-16 ) ) ;
#156 = DIRECTION ( 'NONE',  ( 4.275831445896958607E-31, 1.000000000000000000, 1.224646799147353207E-16 ) ) ;
#157 = DATE_TIME_ROLE ( 'creation_date' ) ;
#158 = AXIS2_PLACEMENT_3D ( 'NONE', #46, #128, #156 ) ;
#159 = DIRECTION ( 'NONE',  ( -3.491481338843133355E-15, 1.224646799147353207E-16, -1.000000000000000000 ) ) ;
#160 = CC_DESIGN_PERSON_AND_ORGANIZATION_ASSIGNMENT ( #73, #126, ( #103 ) ) ;
#161 = LOCAL_TIME ( 15, 47, 4.000000000000000000, #121 ) ;
#162 = FACE_OUTER_BOUND ( 'NONE', #127, .T. ) ;
#163 = ADVANCED_FACE ( 'NONE', ( #113 ), #144, .T. ) ;
#164 = PERSON_AND_ORGANIZATION ( #56, #26 ) ;
#165 = DATE_TIME_ROLE ( 'classification_date' ) ;
#166 = CALENDAR_DATE ( 2021, 15, 11 ) ;
#167 = DESIGN_CONTEXT ( 'detailed design', #181, 'design' ) ;
#168 = DIRECTION ( 'NONE',  ( 0.0000000000000000000, 0.0000000000000000000, 1.000000000000000000 ) ) ;
#169 = AXIS2_PLACEMENT_3D ( 'NONE', #109, #94, #35 ) ;
#170 = ADVANCED_FACE ( 'NONE', ( #63 ), #74, .F. ) ;
#171 = DIRECTION ( 'NONE',  ( -3.491481338843133355E-15, 1.224646799147353207E-16, -1.000000000000000000 ) ) ;
#172 = PLANE ( 'NONE',  #129 ) ;
#173 = APPROVAL_DATE_TIME ( #150, #15 ) ;
#174 = EDGE_LOOP ( 'NONE', ( #62 ) ) ;
#175 = PERSON_AND_ORGANIZATION ( #56, #26 ) ;
#176 = DIRECTION ( 'NONE',  ( 0.0000000000000000000, 1.000000000000000000, 0.0000000000000000000 ) ) ;
#177 = PRODUCT_DEFINITION_SHAPE ( 'NONE', 'NONE',  #103 ) ;
#178 = PERSON_AND_ORGANIZATION ( #56, #26 ) ;
#179 = CARTESIAN_POINT ( 'NONE',  ( 2.199633243471174140E-13, 3.499999999999993783, 63.00000000000000000 ) ) ;
#180 = DIRECTION ( 'NONE',  ( -4.275831445896958607E-31, -1.000000000000000000, -1.224646799147353207E-16 ) ) ;
#181 = APPLICATION_CONTEXT ( 'configuration controlled 3d designs of mechanical parts and assemblies' ) ;
#182 = VERTEX_POINT ( 'NONE', #203 ) ;
#183 = LOCAL_TIME ( 15, 47, 4.000000000000000000, #139 ) ;
#184 = DIRECTION ( 'NONE',  ( 1.000000000000000000, 0.0000000000000000000, 0.0000000000000000000 ) ) ;
#185 = CARTESIAN_POINT ( 'NONE',  ( 0.0000000000000000000, 0.0000000000000000000, 0.0000000000000000000 ) ) ;
#186 = DATE_AND_TIME ( #166, #20 ) ;
#187 = PERSON_AND_ORGANIZATION ( #56, #26 ) ;
#188 = EDGE_CURVE ( 'NONE', #88, #88, #64, .T. ) ;
#189 = APPLICATION_CONTEXT ( 'configuration controlled 3d designs of mechanical parts and assemblies' ) ;
#190 = AXIS2_PLACEMENT_3D ( 'NONE', #141, #171, #100 ) ;
#191 = CALENDAR_DATE ( 2021, 15, 11 ) ;
#192 = FACE_OUTER_BOUND ( 'NONE', #138, .T. ) ;
#193 = ORIENTED_EDGE ( 'NONE', *, *, #66, .T. ) ;
#194 = APPROVAL ( #104, 'UNSPECIFIED' ) ;
#195 = DIRECTION ( 'NONE',  ( -3.491481338843133355E-15, 1.224646799147353207E-16, -1.000000000000000000 ) ) ;
#196 = CC_DESIGN_APPROVAL ( #7, ( #2 ) ) ;
#197 = EDGE_LOOP ( 'NONE', ( #93 ) ) ;
#198 = EDGE_LOOP ( 'NONE', ( #75 ) ) ;
#199 = ADVANCED_FACE ( 'NONE', ( #101, #146 ), #133, .T. ) ;
#200 = AXIS2_PLACEMENT_3D ( 'NONE', #21, #22, #112 ) ;
#201 = CC_DESIGN_PERSON_AND_ORGANIZATION_ASSIGNMENT ( #27, #123, ( #2 ) ) ;
#202 = CONICAL_SURFACE ( 'NONE', #97, 3.500000000000001332, 0.7853981633974473908 ) ;
#203 = CARTESIAN_POINT ( 'NONE',  ( 2.182175836776958284E-13, 3.999999999999993339, 62.50000000000000000 ) ) ;
ENDSEC;
END-ISO-10303-21;
