ISO-10303-21;
HEADER;
FILE_DESCRIPTION (( 'STEP AP203' ),
    '1' );
FILE_NAME ('57244.step',
    '2021-11-15T14:47:03',
    ( '' ),
    ( '' ),
    'SwSTEP 2.0',
    'SolidWorks 2019',
    '' );
FILE_SCHEMA (( 'CONFIG_CONTROL_DESIGN' ));
ENDSEC;

DATA;
#1 = PERSON_AND_ORGANIZATION_ROLE ( 'design_supplier' ) ;
#2 = LOCAL_TIME ( 15, 47, 3.000000000000000000, #145 ) ;
#3 = FACE_OUTER_BOUND ( 'NONE', #36, .T. ) ;
#4 = APPROVAL ( #152, 'UNSPECIFIED' ) ;
#5 = EDGE_LOOP ( 'NONE', ( #17 ) ) ;
#6 = AXIS2_PLACEMENT_3D ( 'NONE', #197, #179, #11 ) ;
#7 = APPROVAL_ROLE ( '' ) ;
#8 = CARTESIAN_POINT ( 'NONE',  ( 2.182175836776958284E-13, -7.654042494670957804E-15, 62.50000000000000000 ) ) ;
#9 = DIRECTION ( 'NONE',  ( 0.0000000000000000000, 1.000000000000000000, 0.0000000000000000000 ) ) ;
#10 = TOROIDAL_SURFACE ( 'NONE', #157, 11.50000000000000000, 7.999999999999998224 ) ;
#11 = DIRECTION ( 'NONE',  ( -4.275831445896958607E-31, -1.000000000000000000, -1.224646799147353207E-16 ) ) ;
#12 = CARTESIAN_POINT ( 'NONE',  ( 6.558357410743852299E-14, 3.999999999999996447, 18.78388218141500232 ) ) ;
#13 = APPROVAL_DATE_TIME ( #30, #33 ) ;
#14 = COORDINATED_UNIVERSAL_TIME_OFFSET ( 1, 0, .AHEAD. ) ;
#15 = APPROVAL_PERSON_ORGANIZATION ( #215, #4, #7 ) ;
#16 = CC_DESIGN_DATE_AND_TIME_ASSIGNMENT ( #200, #84, ( #202 ) ) ;
#17 = ORIENTED_EDGE ( 'NONE', *, *, #174, .F. ) ;
#18 = APPROVAL ( #19, 'UNSPECIFIED' ) ;
#19 = APPROVAL_STATUS ( 'not_yet_approved' ) ;
#20 =( GEOMETRIC_REPRESENTATION_CONTEXT ( 3 ) GLOBAL_UNCERTAINTY_ASSIGNED_CONTEXT ( ( #188 ) ) GLOBAL_UNIT_ASSIGNED_CONTEXT ( ( #86, #54, #108 ) ) REPRESENTATION_CONTEXT ( 'NONE', 'WORKASPACE' ) );
#21 = CARTESIAN_POINT ( 'NONE',  ( -1.521408274504397164E-30, 5.425053846564915925E-32, -4.357486484543263315E-16 ) ) ;
#22 = APPLICATION_CONTEXT ( 'configuration controlled 3d designs of mechanical parts and assemblies' ) ;
#23 = ORIENTED_EDGE ( 'NONE', *, *, #127, .F. ) ;
#24 = DIRECTION ( 'NONE',  ( 3.491481338843133355E-15, -1.244996138440932305E-16, 1.000000000000000000 ) ) ;
#25 = CARTESIAN_POINT ( 'NONE',  ( 5.586370142149013368E-14, 2.999519565323708647E-32, 16.00000000000000000 ) ) ;
#26 = CC_DESIGN_PERSON_AND_ORGANIZATION_ASSIGNMENT ( #171, #134, ( #202 ) ) ;
#27 = DIRECTION ( 'NONE',  ( -4.275831445896958607E-31, -1.000000000000000000, -1.224646799147353207E-16 ) ) ;
#28 = DIRECTION ( 'NONE',  ( -3.491481338843133355E-15, 1.224646799147353207E-16, -1.000000000000000000 ) ) ;
#29 = COORDINATED_UNIVERSAL_TIME_OFFSET ( 1, 0, .AHEAD. ) ;
#30 = DATE_AND_TIME ( #50, #166 ) ;
#31 = DIRECTION ( 'NONE',  ( 3.491481338843133355E-15, -1.224646799147353207E-16, 1.000000000000000000 ) ) ;
#32 = VERTEX_POINT ( 'NONE', #37 ) ;
#33 = APPROVAL ( #184, 'UNSPECIFIED' ) ;
#34 = APPLICATION_CONTEXT ( 'configuration controlled 3d designs of mechanical parts and assemblies' ) ;
#35 = CC_DESIGN_APPROVAL ( #18, ( #75 ) ) ;
#36 = EDGE_LOOP ( 'NONE', ( #87 ) ) ;
#37 = CARTESIAN_POINT ( 'NONE',  ( 2.199633243471174140E-13, 3.499999999999993783, 63.00000000000000000 ) ) ;
#38 = PERSON_AND_ORGANIZATION ( #204, #146 ) ;
#39 = AXIS2_PLACEMENT_3D ( 'NONE', #153, #31, #77 ) ;
#40 = COORDINATED_UNIVERSAL_TIME_OFFSET ( 1, 0, .AHEAD. ) ;
#41 = EDGE_LOOP ( 'NONE', ( #93 ) ) ;
#42 = LOCAL_TIME ( 15, 47, 3.000000000000000000, #154 ) ;
#43 = FACE_BOUND ( 'NONE', #211, .T. ) ;
#44 = DIRECTION ( 'NONE',  ( 0.0000000000000000000, 1.000000000000000000, 0.0000000000000000000 ) ) ;
#45 = APPROVAL_DATE_TIME ( #218, #4 ) ;
#46 = FACE_OUTER_BOUND ( 'NONE', #110, .T. ) ;
#47 = PLANE ( 'NONE',  #6 ) ;
#48 = CIRCLE ( 'NONE', #118, 3.500000000000001776 ) ;
#49 = PLANE ( 'NONE',  #182 ) ;
#50 = CALENDAR_DATE ( 2021, 15, 11 ) ;
#51 = CONICAL_SURFACE ( 'NONE', #53, 3.500000000000001332, 0.7853981633974473908 ) ;
#52 = AXIS2_PLACEMENT_3D ( 'NONE', #120, #56, #191 ) ;
#53 = AXIS2_PLACEMENT_3D ( 'NONE', #138, #203, #126 ) ;
#54 =( NAMED_UNIT ( * ) PLANE_ANGLE_UNIT ( ) SI_UNIT ( $, .RADIAN. ) );
#55 = CYLINDRICAL_SURFACE ( 'NONE', #52, 3.500000000000000888 ) ;
#56 = DIRECTION ( 'NONE',  ( 3.491481338843133355E-15, -1.244996138440932305E-16, 1.000000000000000000 ) ) ;
#57 = CIRCLE ( 'NONE', #213, 4.000000000000000888 ) ;
#58 = FACE_OUTER_BOUND ( 'NONE', #91, .T. ) ;
#59 = VERTEX_POINT ( 'NONE', #125 ) ;
#60 = CC_DESIGN_PERSON_AND_ORGANIZATION_ASSIGNMENT ( #144, #103, ( #162 ) ) ;
#61 = CARTESIAN_POINT ( 'NONE',  ( 2.199633243471174140E-13, 2.624579619658240413E-32, 63.00000000000000000 ) ) ;
#62 = PLANE ( 'NONE',  #39 ) ;
#63 = CARTESIAN_POINT ( 'NONE',  ( -3.042816549008794327E-30, -3.500000000000000000, -8.714972969086526631E-16 ) ) ;
#64 = CIRCLE ( 'NONE', #115, 3.999999999999998224 ) ;
#65 = ADVANCED_FACE ( 'NONE', ( #3, #210 ), #55, .T. ) ;
#66 = APPROVAL_ROLE ( '' ) ;
#67 = EDGE_CURVE ( 'NONE', #95, #95, #141, .T. ) ;
#68 = SECURITY_CLASSIFICATION_LEVEL ( 'unclassified' ) ;
#69 = DATE_AND_TIME ( #102, #201 ) ;
#70 = AXIS2_PLACEMENT_3D ( 'NONE', #156, #139, #220 ) ;
#71 = EDGE_LOOP ( 'NONE', ( #89 ) ) ;
#72 = CLOSED_SHELL ( 'NONE', ( #192, #65, #155 ) ) ;
#73 = MANIFOLD_SOLID_BREP ( 'Corps-Déplacer/Copier1[2]', #72 ) ;
#74 = APPLICATION_PROTOCOL_DEFINITION ( 'international standard', 'config_control_design', 1994, #34 ) ;
#75 = SECURITY_CLASSIFICATION ( '', '', #68 ) ;
#76 = EDGE_LOOP ( 'NONE', ( #168 ) ) ;
#77 = DIRECTION ( 'NONE',  ( -4.275831445896958607E-31, -1.000000000000000000, -1.224646799147353207E-16 ) ) ;
#78 = DIRECTION ( 'NONE',  ( -4.455825581850111272E-31, -1.000000000000000000, -1.244996138440932305E-16 ) ) ;
#79 = DIRECTION ( 'NONE',  ( 3.491481338843133355E-15, -1.244996138440932305E-16, 1.000000000000000000 ) ) ;
#80 = FACE_OUTER_BOUND ( 'NONE', #71, .T. ) ;
#81 = DIRECTION ( 'NONE',  ( -3.491481338843133355E-15, 1.244996138440932305E-16, -1.000000000000000000 ) ) ;
#82 = AXIS2_PLACEMENT_3D ( 'NONE', #25, #114, #27 ) ;
#83 = PERSON_AND_ORGANIZATION_ROLE ( 'classification_officer' ) ;
#84 = DATE_TIME_ROLE ( 'creation_date' ) ;
#85 = PERSON_AND_ORGANIZATION ( #204, #146 ) ;
#86 =( LENGTH_UNIT ( ) NAMED_UNIT ( * ) SI_UNIT ( .MILLI., .METRE. ) );
#87 = ORIENTED_EDGE ( 'NONE', *, *, #67, .T. ) ;
#88 = DATE_AND_TIME ( #206, #2 ) ;
#89 = ORIENTED_EDGE ( 'NONE', *, *, #165, .F. ) ;
#90 = PRODUCT_RELATED_PRODUCT_CATEGORY ( 'detail', '', ( #214 ) ) ;
#91 = EDGE_LOOP ( 'NONE', ( #122 ) ) ;
#92 = CIRCLE ( 'NONE', #143, 3.500000000000001776 ) ;
#93 = ORIENTED_EDGE ( 'NONE', *, *, #67, .F. ) ;
#94 = PERSON_AND_ORGANIZATION_ROLE ( 'design_owner' ) ;
#95 = VERTEX_POINT ( 'NONE', #63 ) ;
#96 = DIRECTION ( 'NONE',  ( 3.491481338843133355E-15, -1.244996138440932305E-16, 1.000000000000000000 ) ) ;
#97 = CARTESIAN_POINT ( 'NONE',  ( 2.182175836776958284E-13, 3.999999999999993339, 62.50000000000000000 ) ) ;
#98 = DIRECTION ( 'NONE',  ( 0.0000000000000000000, -1.000000000000000000, 0.0000000000000000000 ) ) ;
#99 = CC_DESIGN_DATE_AND_TIME_ASSIGNMENT ( #69, #209, ( #75 ) ) ;
#100 = CC_DESIGN_APPROVAL ( #33, ( #162 ) ) ;
#101 = DIRECTION ( 'NONE',  ( 0.0000000000000000000, -1.000000000000000000, 0.0000000000000000000 ) ) ;
#102 = CALENDAR_DATE ( 2021, 15, 11 ) ;
#103 = PERSON_AND_ORGANIZATION_ROLE ( 'creator' ) ;
#104 = APPROVAL_PERSON_ORGANIZATION ( #38, #18, #66 ) ;
#105 = ADVANCED_FACE ( 'NONE', ( #159, #43 ), #51, .T. ) ;
#106 = EDGE_LOOP ( 'NONE', ( #132 ) ) ;
#107 = DIRECTION ( 'NONE',  ( 1.000000000000000000, 0.0000000000000000000, 0.0000000000000000000 ) ) ;
#108 =( NAMED_UNIT ( * ) SI_UNIT ( $, .STERADIAN. ) SOLID_ANGLE_UNIT ( ) );
#109 = CC_DESIGN_PERSON_AND_ORGANIZATION_ASSIGNMENT ( #187, #83, ( #75 ) ) ;
#110 = EDGE_LOOP ( 'NONE', ( #149 ) ) ;
#111 = DIRECTION ( 'NONE',  ( -3.491481338843133355E-15, 1.224646799147353207E-16, -1.000000000000000000 ) ) ;
#112 = PERSON_AND_ORGANIZATION ( #204, #146 ) ;
#113 = CARTESIAN_POINT ( 'NONE',  ( 5.586370142149013368E-14, -3.500000000000003997, 16.00000000000000000 ) ) ;
#114 = DIRECTION ( 'NONE',  ( 3.491481338843133355E-15, -1.224646799147353207E-16, 1.000000000000000000 ) ) ;
#115 = AXIS2_PLACEMENT_3D ( 'NONE', #117, #81, #9 ) ;
#116 = CYLINDRICAL_SURFACE ( 'NONE', #186, 3.999999999999998224 ) ;
#117 = CARTESIAN_POINT ( 'NONE',  ( 6.558357410743852299E-14, -2.081315732550426794E-15, 18.78388218141500232 ) ) ;
#118 = AXIS2_PLACEMENT_3D ( 'NONE', #180, #79, #101 ) ;
#119 = APPLICATION_PROTOCOL_DEFINITION ( 'international standard', 'config_control_design', 1994, #22 ) ;
#120 = CARTESIAN_POINT ( 'NONE',  ( 0.0000000000000000000, 0.0000000000000000000, 0.0000000000000000000 ) ) ;
#121 = CALENDAR_DATE ( 2021, 15, 11 ) ;
#122 = ORIENTED_EDGE ( 'NONE', *, *, #127, .T. ) ;
#123 = EDGE_CURVE ( 'NONE', #219, #219, #57, .T. ) ;
#124 = CC_DESIGN_SECURITY_CLASSIFICATION ( #75, ( #162 ) ) ;
#125 = CARTESIAN_POINT ( 'NONE',  ( 5.586370142149013368E-14, -3.500000000000003997, 16.00000000000000000 ) ) ;
#126 = DIRECTION ( 'NONE',  ( 0.0000000000000000000, 1.000000000000000000, 0.0000000000000000000 ) ) ;
#127 = EDGE_CURVE ( 'NONE', #217, #217, #64, .T. ) ;
#128 = FACE_OUTER_BOUND ( 'NONE', #41, .T. ) ;
#129 = DIRECTION ( 'NONE',  ( 4.275831445896958607E-31, 1.000000000000000000, 1.224646799147353207E-16 ) ) ;
#130 = ADVANCED_FACE ( 'NONE', ( #181, #158 ), #116, .T. ) ;
#131 = CC_DESIGN_PERSON_AND_ORGANIZATION_ASSIGNMENT ( #112, #94, ( #214 ) ) ;
#132 = ORIENTED_EDGE ( 'NONE', *, *, #135, .F. ) ;
#133 = ORIENTED_EDGE ( 'NONE', *, *, #174, .T. ) ;
#134 = PERSON_AND_ORGANIZATION_ROLE ( 'creator' ) ;
#135 = EDGE_CURVE ( 'NONE', #59, #59, #92, .T. ) ;
#136 = DIRECTION ( 'NONE',  ( 3.491481338843133355E-15, -1.244996138440932305E-16, 1.000000000000000000 ) ) ;
#137 = MANIFOLD_SOLID_BREP ( 'Corps-Déplacer/Copier1[1]', #198 ) ;
#138 = CARTESIAN_POINT ( 'NONE',  ( 2.199633243471174140E-13, -7.715274834628325378E-15, 63.00000000000000000 ) ) ;
#139 = DIRECTION ( 'NONE',  ( -3.491481338843133355E-15, 1.224646799147353207E-16, -1.000000000000000000 ) ) ;
#140 = CARTESIAN_POINT ( 'NONE',  ( 0.0000000000000000000, 0.0000000000000000000, 0.0000000000000000000 ) ) ;
#141 = CIRCLE ( 'NONE', #175, 3.500000000000000000 ) ;
#142 = CARTESIAN_POINT ( 'NONE',  ( 5.586370142149013368E-14, -1.991993821505491689E-15, 16.00000000000000000 ) ) ;
#143 = AXIS2_PLACEMENT_3D ( 'NONE', #142, #96, #98 ) ;
#144 = PERSON_AND_ORGANIZATION ( #204, #146 ) ;
#145 = COORDINATED_UNIVERSAL_TIME_OFFSET ( 1, 0, .AHEAD. ) ;
#146 = ORGANIZATION ( 'UNSPECIFIED', 'UNSPECIFIED', '' ) ;
#147 = ADVANCED_FACE ( 'NONE', ( #80 ), #62, .F. ) ;
#148 = ORIENTED_EDGE ( 'NONE', *, *, #165, .T. ) ;
#149 = ORIENTED_EDGE ( 'NONE', *, *, #135, .T. ) ;
#150 = ORIENTED_EDGE ( 'NONE', *, *, #123, .T. ) ;
#151 = CC_DESIGN_APPROVAL ( #4, ( #202 ) ) ;
#152 = APPROVAL_STATUS ( 'not_yet_approved' ) ;
#153 = CARTESIAN_POINT ( 'NONE',  ( 5.586370142149013368E-14, 2.999519565323708647E-32, 16.00000000000000000 ) ) ;
#154 = COORDINATED_UNIVERSAL_TIME_OFFSET ( 1, 0, .AHEAD. ) ;
#155 = ADVANCED_FACE ( 'NONE', ( #128 ), #47, .F. ) ;
#156 = CARTESIAN_POINT ( 'NONE',  ( 2.199633243471174140E-13, -7.715274834628325378E-15, 63.00000000000000000 ) ) ;
#157 = AXIS2_PLACEMENT_3D ( 'NONE', #164, #24, #78 ) ;
#158 = FACE_OUTER_BOUND ( 'NONE', #177, .T. ) ;
#159 = FACE_OUTER_BOUND ( 'NONE', #76, .T. ) ;
#160 = ADVANCED_BREP_SHAPE_REPRESENTATION ( '57244', ( #137, #73, #223 ), #20 ) ;
#161 = ADVANCED_FACE ( 'NONE', ( #199 ), #49, .F. ) ;
#162 = PRODUCT_DEFINITION_FORMATION_WITH_SPECIFIED_SOURCE ( 'ANY', '', #214, .NOT_KNOWN. ) ;
#163 = APPROVAL_ROLE ( '' ) ;
#164 = CARTESIAN_POINT ( 'NONE',  ( 5.586370142149013368E-14, -1.734723475976807094E-15, 16.00000000000000000 ) ) ;
#165 = EDGE_CURVE ( 'NONE', #196, #196, #48, .T. ) ;
#166 = LOCAL_TIME ( 15, 47, 3.000000000000000000, #29 ) ;
#167 = DESIGN_CONTEXT ( 'detailed design', #34, 'design' ) ;
#168 = ORIENTED_EDGE ( 'NONE', *, *, #123, .F. ) ;
#169 = MECHANICAL_CONTEXT ( 'NONE', #22, 'mechanical' ) ;
#170 = EDGE_LOOP ( 'NONE', ( #150 ) ) ;
#171 = PERSON_AND_ORGANIZATION ( #204, #146 ) ;
#172 = CALENDAR_DATE ( 2021, 15, 11 ) ;
#173 = SHAPE_DEFINITION_REPRESENTATION ( #176, #160 ) ;
#174 = EDGE_CURVE ( 'NONE', #32, #32, #178, .T. ) ;
#175 = AXIS2_PLACEMENT_3D ( 'NONE', #21, #136, #194 ) ;
#176 = PRODUCT_DEFINITION_SHAPE ( 'NONE', 'NONE',  #202 ) ;
#177 = EDGE_LOOP ( 'NONE', ( #23 ) ) ;
#178 = CIRCLE ( 'NONE', #70, 3.500000000000001332 ) ;
#179 = DIRECTION ( 'NONE',  ( 3.491481338843133355E-15, -1.224646799147353207E-16, 1.000000000000000000 ) ) ;
#180 = CARTESIAN_POINT ( 'NONE',  ( 5.586370142149013368E-14, -1.991993821505491689E-15, 16.00000000000000000 ) ) ;
#181 = FACE_OUTER_BOUND ( 'NONE', #170, .T. ) ;
#182 = AXIS2_PLACEMENT_3D ( 'NONE', #61, #221, #129 ) ;
#183 = PLANE ( 'NONE',  #82 ) ;
#184 = APPROVAL_STATUS ( 'not_yet_approved' ) ;
#185 = DIRECTION ( 'NONE',  ( 4.275831445896958607E-31, 1.000000000000000000, 1.224646799147353207E-16 ) ) ;
#186 = AXIS2_PLACEMENT_3D ( 'NONE', #140, #111, #185 ) ;
#187 = PERSON_AND_ORGANIZATION ( #204, #146 ) ;
#188 = UNCERTAINTY_MEASURE_WITH_UNIT (LENGTH_MEASURE( 1.000000000000000082E-05 ), #86, 'distance_accuracy_value', 'NONE');
#189 = EDGE_LOOP ( 'NONE', ( #148 ) ) ;
#190 = CARTESIAN_POINT ( 'NONE',  ( 0.0000000000000000000, 0.0000000000000000000, 0.0000000000000000000 ) ) ;
#191 = DIRECTION ( 'NONE',  ( -4.346880784298277610E-31, -1.000000000000000000, -1.244996138440932305E-16 ) ) ;
#192 = ADVANCED_FACE ( 'NONE', ( #46 ), #183, .T. ) ;
#193 = APPROVAL_DATE_TIME ( #88, #18 ) ;
#194 = DIRECTION ( 'NONE',  ( -4.346880784298277610E-31, -1.000000000000000000, -1.244996138440932305E-16 ) ) ;
#195 = APPROVAL_PERSON_ORGANIZATION ( #207, #33, #163 ) ;
#196 = VERTEX_POINT ( 'NONE', #113 ) ;
#197 = CARTESIAN_POINT ( 'NONE',  ( -6.413786353522005134E-31, 2.249653418127174030E-32, -1.836981421658449264E-16 ) ) ;
#198 = CLOSED_SHELL ( 'NONE', ( #130, #105, #161, #208, #147 ) ) ;
#199 = FACE_OUTER_BOUND ( 'NONE', #5, .T. ) ;
#200 = DATE_AND_TIME ( #172, #222 ) ;
#201 = LOCAL_TIME ( 15, 47, 3.000000000000000000, #14 ) ;
#202 = PRODUCT_DEFINITION ( 'UNKNOWN', '', #162, #167 ) ;
#203 = DIRECTION ( 'NONE',  ( -3.491481338843133355E-15, 1.224646799147353207E-16, -1.000000000000000000 ) ) ;
#204 = PERSON ( 'UNSPECIFIED', 'UNSPECIFIED', 'UNSPECIFIED', ('UNSPECIFIED'), ('UNSPECIFIED'), ('UNSPECIFIED') ) ;
#205 = DIRECTION ( 'NONE',  ( 0.0000000000000000000, 0.0000000000000000000, 1.000000000000000000 ) ) ;
#206 = CALENDAR_DATE ( 2021, 15, 11 ) ;
#207 = PERSON_AND_ORGANIZATION ( #204, #146 ) ;
#208 = ADVANCED_FACE ( 'NONE', ( #216, #58 ), #10, .F. ) ;
#209 = DATE_TIME_ROLE ( 'classification_date' ) ;
#210 = FACE_OUTER_BOUND ( 'NONE', #106, .T. ) ;
#211 = EDGE_LOOP ( 'NONE', ( #133 ) ) ;
#212 = CC_DESIGN_PERSON_AND_ORGANIZATION_ASSIGNMENT ( #85, #1, ( #162 ) ) ;
#213 = AXIS2_PLACEMENT_3D ( 'NONE', #8, #28, #44 ) ;
#214 = PRODUCT ( '57244', '57244', '', ( #169 ) ) ;
#215 = PERSON_AND_ORGANIZATION ( #204, #146 ) ;
#216 = FACE_OUTER_BOUND ( 'NONE', #189, .T. ) ;
#217 = VERTEX_POINT ( 'NONE', #12 ) ;
#218 = DATE_AND_TIME ( #121, #42 ) ;
#219 = VERTEX_POINT ( 'NONE', #97 ) ;
#220 = DIRECTION ( 'NONE',  ( 0.0000000000000000000, 1.000000000000000000, 0.0000000000000000000 ) ) ;
#221 = DIRECTION ( 'NONE',  ( -3.491481338843133355E-15, 1.224646799147353207E-16, -1.000000000000000000 ) ) ;
#222 = LOCAL_TIME ( 15, 47, 3.000000000000000000, #40 ) ;
#223 = AXIS2_PLACEMENT_3D ( 'NONE', #190, #205, #107 ) ;
ENDSEC;
END-ISO-10303-21;
