ISO-10303-21;
HEADER;
FILE_DESCRIPTION (( 'STEP AP203' ),
    '1' );
FILE_NAME ('57243.step',
    '2021-11-15T14:47:03',
    ( '' ),
    ( '' ),
    'SwSTEP 2.0',
    'SolidWorks 2019',
    '' );
FILE_SCHEMA (( 'CONFIG_CONTROL_DESIGN' ));
ENDSEC;

DATA;
#1 = DIRECTION ( 'NONE',  ( 0.0000000000000000000, 1.000000000000000000, 0.0000000000000000000 ) ) ;
#2 = MANIFOLD_SOLID_BREP ( 'Corps-Déplacer/Copier1[1]', #131 ) ;
#3 = AXIS2_PLACEMENT_3D ( 'NONE', #81, #32, #189 ) ;
#4 = MANIFOLD_SOLID_BREP ( 'Corps-Déplacer/Copier1[2]', #70 ) ;
#5 = APPROVAL_STATUS ( 'not_yet_approved' ) ;
#6 = PERSON_AND_ORGANIZATION ( #45, #87 ) ;
#7 = CIRCLE ( 'NONE', #58, 2.999999999999997335 ) ;
#8 = DATE_AND_TIME ( #101, #140 ) ;
#9 = AXIS2_PLACEMENT_3D ( 'NONE', #33, #66, #46 ) ;
#10 = EDGE_LOOP ( 'NONE', ( #13 ) ) ;
#11 = CC_DESIGN_PERSON_AND_ORGANIZATION_ASSIGNMENT ( #54, #116, ( #162 ) ) ;
#12 = PRODUCT_DEFINITION_SHAPE ( 'NONE', 'NONE',  #162 ) ;
#13 = ORIENTED_EDGE ( 'NONE', *, *, #40, .F. ) ;
#14 = DIRECTION ( 'NONE',  ( -3.491481338843133355E-15, 1.224646799147353207E-16, -1.000000000000000000 ) ) ;
#15 = CARTESIAN_POINT ( 'NONE',  ( 6.413860661669502591E-31, 2.999999999999995559, 1.837002704357763860E-16 ) ) ;
#16 = FACE_OUTER_BOUND ( 'NONE', #198, .T. ) ;
#17 = ADVANCED_FACE ( 'NONE', ( #88 ), #149, .F. ) ;
#18 = FACE_OUTER_BOUND ( 'NONE', #197, .T. ) ;
#19 = DIRECTION ( 'NONE',  ( -3.491481338843133355E-15, 1.224646799147353207E-16, -1.000000000000000000 ) ) ;
#20 = PRODUCT_DEFINITION_FORMATION_WITH_SPECIFIED_SOURCE ( 'ANY', '', #89, .NOT_KNOWN. ) ;
#21 = PERSON_AND_ORGANIZATION ( #45, #87 ) ;
#22 = COORDINATED_UNIVERSAL_TIME_OFFSET ( 1, 0, .AHEAD. ) ;
#23 = SECURITY_CLASSIFICATION_LEVEL ( 'unclassified' ) ;
#24 = DATE_TIME_ROLE ( 'creation_date' ) ;
#25 = CC_DESIGN_SECURITY_CLASSIFICATION ( #150, ( #20 ) ) ;
#26 = ORIENTED_EDGE ( 'NONE', *, *, #40, .T. ) ;
#27 = EDGE_LOOP ( 'NONE', ( #75 ) ) ;
#28 = CARTESIAN_POINT ( 'NONE',  ( 1.990144363140586139E-13, 1.874699728327313799E-32, 57.00000000000000000 ) ) ;
#29 = DIRECTION ( 'NONE',  ( -3.491481338843133355E-15, 1.224646799147353207E-16, -1.000000000000000000 ) ) ;
#30 = DIRECTION ( 'NONE',  ( -4.275831445896958607E-31, -1.000000000000000000, -1.224646799147353207E-16 ) ) ;
#31 = LOCAL_TIME ( 15, 47, 3.000000000000000000, #103 ) ;
#32 = DIRECTION ( 'NONE',  ( 3.491481338843133355E-15, -1.224646799147353207E-16, 1.000000000000000000 ) ) ;
#33 = CARTESIAN_POINT ( 'NONE',  ( 4.538925740496073362E-14, -1.592040838891559095E-15, 13.00000000000000000 ) ) ;
#34 = EDGE_CURVE ( 'NONE', #79, #79, #7, .T. ) ;
#35 = PERSON_AND_ORGANIZATION_ROLE ( 'design_owner' ) ;
#36 = AXIS2_PLACEMENT_3D ( 'NONE', #196, #182, #185 ) ;
#37 = PERSON_AND_ORGANIZATION ( #45, #87 ) ;
#38 = APPROVAL_DATE_TIME ( #176, #125 ) ;
#39 = CC_DESIGN_DATE_AND_TIME_ASSIGNMENT ( #102, #128, ( #150 ) ) ;
#40 = EDGE_CURVE ( 'NONE', #77, #77, #84, .T. ) ;
#41 = EDGE_LOOP ( 'NONE', ( #60 ) ) ;
#42 = ORIENTED_EDGE ( 'NONE', *, *, #200, .F. ) ;
#43 = CC_DESIGN_APPROVAL ( #63, ( #162 ) ) ;
#44 = DIRECTION ( 'NONE',  ( 3.491481338843133355E-15, -1.224646799147353207E-16, 1.000000000000000000 ) ) ;
#45 = PERSON ( 'UNSPECIFIED', 'UNSPECIFIED', 'UNSPECIFIED', ('UNSPECIFIED'), ('UNSPECIFIED'), ('UNSPECIFIED') ) ;
#46 = DIRECTION ( 'NONE',  ( 0.0000000000000000000, 1.000000000000000000, 0.0000000000000000000 ) ) ;
#47 = FACE_OUTER_BOUND ( 'NONE', #90, .T. ) ;
#48 = PLANE ( 'NONE',  #99 ) ;
#49 = DATE_AND_TIME ( #86, #110 ) ;
#50 = PERSON_AND_ORGANIZATION ( #45, #87 ) ;
#51 = CALENDAR_DATE ( 2021, 15, 11 ) ;
#52 = DIRECTION ( 'NONE',  ( 1.000000000000000000, 0.0000000000000000000, 0.0000000000000000000 ) ) ;
#53 = ADVANCED_FACE ( 'NONE', ( #151, #76 ), #203, .T. ) ;
#54 = PERSON_AND_ORGANIZATION ( #45, #87 ) ;
#55 = AXIS2_PLACEMENT_3D ( 'NONE', #96, #155, #80 ) ;
#56 = ADVANCED_FACE ( 'NONE', ( #18 ), #108, .T. ) ;
#57 = DIRECTION ( 'NONE',  ( 4.275831445896958607E-31, 1.000000000000000000, 1.224646799147353207E-16 ) ) ;
#58 = AXIS2_PLACEMENT_3D ( 'NONE', #105, #136, #122 ) ;
#59 =( GEOMETRIC_REPRESENTATION_CONTEXT ( 3 ) GLOBAL_UNCERTAINTY_ASSIGNED_CONTEXT ( ( #143 ) ) GLOBAL_UNIT_ASSIGNED_CONTEXT ( ( #62, #141, #126 ) ) REPRESENTATION_CONTEXT ( 'NONE', 'WORKASPACE' ) );
#60 = ORIENTED_EDGE ( 'NONE', *, *, #200, .T. ) ;
#61 = AXIS2_PLACEMENT_3D ( 'NONE', #186, #44, #107 ) ;
#62 =( LENGTH_UNIT ( ) NAMED_UNIT ( * ) SI_UNIT ( .MILLI., .METRE. ) );
#63 = APPROVAL ( #134, 'UNSPECIFIED' ) ;
#64 = FACE_OUTER_BOUND ( 'NONE', #91, .T. ) ;
#65 = APPLICATION_PROTOCOL_DEFINITION ( 'international standard', 'config_control_design', 1994, #157 ) ;
#66 = DIRECTION ( 'NONE',  ( -3.491481338843133355E-15, 1.224646799147353207E-16, -1.000000000000000000 ) ) ;
#67 = CIRCLE ( 'NONE', #9, 2.999999999999997335 ) ;
#68 = CYLINDRICAL_SURFACE ( 'NONE', #55, 3.000000000000000000 ) ;
#69 = PERSON_AND_ORGANIZATION ( #45, #87 ) ;
#70 = CLOSED_SHELL ( 'NONE', ( #154, #53, #56 ) ) ;
#71 = CC_DESIGN_PERSON_AND_ORGANIZATION_ASSIGNMENT ( #178, #160, ( #150 ) ) ;
#72 = MECHANICAL_CONTEXT ( 'NONE', #157, 'mechanical' ) ;
#73 = CC_DESIGN_PERSON_AND_ORGANIZATION_ASSIGNMENT ( #21, #100, ( #20 ) ) ;
#74 = DIRECTION ( 'NONE',  ( -3.491481338843133355E-15, 1.224646799147353207E-16, -1.000000000000000000 ) ) ;
#75 = ORIENTED_EDGE ( 'NONE', *, *, #142, .F. ) ;
#76 = FACE_OUTER_BOUND ( 'NONE', #167, .T. ) ;
#77 = VERTEX_POINT ( 'NONE', #15 ) ;
#78 = CARTESIAN_POINT ( 'NONE',  ( 1.990144363140586139E-13, -6.980486755139912911E-15, 57.00000000000000000 ) ) ;
#79 = VERTEX_POINT ( 'NONE', #109 ) ;
#80 = DIRECTION ( 'NONE',  ( 4.275831445896959482E-31, 1.000000000000000000, 1.224646799147353207E-16 ) ) ;
#81 = CARTESIAN_POINT ( 'NONE',  ( -3.206816838010677856E-31, 1.124799933034399755E-32, -9.184688465421452921E-17 ) ) ;
#82 = COORDINATED_UNIVERSAL_TIME_OFFSET ( 1, 0, .AHEAD. ) ;
#83 = ADVANCED_FACE ( 'NONE', ( #64, #47 ), #68, .T. ) ;
#84 = CIRCLE ( 'NONE', #36, 2.999999999999995559 ) ;
#85 = CIRCLE ( 'NONE', #192, 2.500000000000002665 ) ;
#86 = CALENDAR_DATE ( 2021, 15, 11 ) ;
#87 = ORGANIZATION ( 'UNSPECIFIED', 'UNSPECIFIED', '' ) ;
#88 = FACE_OUTER_BOUND ( 'NONE', #27, .T. ) ;
#89 = PRODUCT ( '57243', '57243', '', ( #72 ) ) ;
#90 = EDGE_LOOP ( 'NONE', ( #180 ) ) ;
#91 = EDGE_LOOP ( 'NONE', ( #42 ) ) ;
#92 = VERTEX_POINT ( 'NONE', #152 ) ;
#93 = ADVANCED_BREP_SHAPE_REPRESENTATION ( '57243', ( #2, #4, #138 ), #59 ) ;
#94 = CARTESIAN_POINT ( 'NONE',  ( 1.972686956446370535E-13, -6.919254415182545337E-15, 56.50000000000000000 ) ) ;
#95 = CONICAL_SURFACE ( 'NONE', #183, 2.500000000000002665, 0.7853981633974479459 ) ;
#96 = CARTESIAN_POINT ( 'NONE',  ( 0.0000000000000000000, 0.0000000000000000000, 0.0000000000000000000 ) ) ;
#97 = CARTESIAN_POINT ( 'NONE',  ( 1.990144363140586139E-13, 2.499999999999995559, 57.00000000000000000 ) ) ;
#98 = SHAPE_DEFINITION_REPRESENTATION ( #12, #93 ) ;
#99 = AXIS2_PLACEMENT_3D ( 'NONE', #111, #201, #30 ) ;
#100 = PERSON_AND_ORGANIZATION_ROLE ( 'design_supplier' ) ;
#101 = CALENDAR_DATE ( 2021, 15, 11 ) ;
#102 = DATE_AND_TIME ( #51, #121 ) ;
#103 = COORDINATED_UNIVERSAL_TIME_OFFSET ( 1, 0, .AHEAD. ) ;
#104 = ORIENTED_EDGE ( 'NONE', *, *, #34, .T. ) ;
#105 = CARTESIAN_POINT ( 'NONE',  ( 4.538925740496073362E-14, -1.592040838891559095E-15, 13.00000000000000000 ) ) ;
#106 = EDGE_CURVE ( 'NONE', #92, #92, #179, .T. ) ;
#107 = DIRECTION ( 'NONE',  ( -4.275831445896958607E-31, -1.000000000000000000, -1.224646799147353207E-16 ) ) ;
#108 = PLANE ( 'NONE',  #61 ) ;
#109 = CARTESIAN_POINT ( 'NONE',  ( 4.538925740496073362E-14, 2.999999999999995559, 13.00000000000000000 ) ) ;
#110 = LOCAL_TIME ( 15, 47, 3.000000000000000000, #114 ) ;
#111 = CARTESIAN_POINT ( 'NONE',  ( 4.538925740496073362E-14, 2.249639673992782033E-32, 13.00000000000000000 ) ) ;
#112 = ADVANCED_FACE ( 'NONE', ( #16, #174 ), #95, .T. ) ;
#113 = DIRECTION ( 'NONE',  ( -3.491481338843133355E-15, 1.224646799147353207E-16, -1.000000000000000000 ) ) ;
#114 = COORDINATED_UNIVERSAL_TIME_OFFSET ( 1, 0, .AHEAD. ) ;
#115 = CC_DESIGN_APPROVAL ( #177, ( #150 ) ) ;
#116 = PERSON_AND_ORGANIZATION_ROLE ( 'creator' ) ;
#117 = COORDINATED_UNIVERSAL_TIME_OFFSET ( 1, 0, .AHEAD. ) ;
#118 = APPROVAL_ROLE ( '' ) ;
#119 = CC_DESIGN_APPROVAL ( #125, ( #20 ) ) ;
#120 = ORIENTED_EDGE ( 'NONE', *, *, #34, .F. ) ;
#121 = LOCAL_TIME ( 15, 47, 3.000000000000000000, #22 ) ;
#122 = DIRECTION ( 'NONE',  ( 0.0000000000000000000, 1.000000000000000000, 0.0000000000000000000 ) ) ;
#123 = APPROVAL_PERSON_ORGANIZATION ( #50, #63, #193 ) ;
#124 = DIRECTION ( 'NONE',  ( 0.0000000000000000000, 1.000000000000000000, 0.0000000000000000000 ) ) ;
#125 = APPROVAL ( #5, 'UNSPECIFIED' ) ;
#126 =( NAMED_UNIT ( * ) SI_UNIT ( $, .STERADIAN. ) SOLID_ANGLE_UNIT ( ) );
#127 = VERTEX_POINT ( 'NONE', #97 ) ;
#128 = DATE_TIME_ROLE ( 'classification_date' ) ;
#129 = PRODUCT_RELATED_PRODUCT_CATEGORY ( 'detail', '', ( #89 ) ) ;
#130 = CALENDAR_DATE ( 2021, 15, 11 ) ;
#131 = CLOSED_SHELL ( 'NONE', ( #170, #83, #112, #17 ) ) ;
#132 = CALENDAR_DATE ( 2021, 15, 11 ) ;
#133 = LOCAL_TIME ( 15, 47, 3.000000000000000000, #117 ) ;
#134 = APPROVAL_STATUS ( 'not_yet_approved' ) ;
#135 = APPROVAL_ROLE ( '' ) ;
#136 = DIRECTION ( 'NONE',  ( -3.491481338843133355E-15, 1.224646799147353207E-16, -1.000000000000000000 ) ) ;
#137 = DIRECTION ( 'NONE',  ( 4.275831445896958607E-31, 1.000000000000000000, 1.224646799147353207E-16 ) ) ;
#138 = AXIS2_PLACEMENT_3D ( 'NONE', #144, #195, #52 ) ;
#139 = CARTESIAN_POINT ( 'NONE',  ( 1.990144363140586139E-13, -6.980486755139912911E-15, 57.00000000000000000 ) ) ;
#140 = LOCAL_TIME ( 15, 47, 3.000000000000000000, #82 ) ;
#141 =( NAMED_UNIT ( * ) PLANE_ANGLE_UNIT ( ) SI_UNIT ( $, .RADIAN. ) );
#142 = EDGE_CURVE ( 'NONE', #127, #127, #85, .T. ) ;
#143 = UNCERTAINTY_MEASURE_WITH_UNIT (LENGTH_MEASURE( 1.000000000000000082E-05 ), #62, 'distance_accuracy_value', 'NONE');
#144 = CARTESIAN_POINT ( 'NONE',  ( 0.0000000000000000000, 0.0000000000000000000, 0.0000000000000000000 ) ) ;
#145 = AXIS2_PLACEMENT_3D ( 'NONE', #94, #14, #169 ) ;
#146 = DATE_AND_TIME ( #132, #31 ) ;
#147 = EDGE_LOOP ( 'NONE', ( #26 ) ) ;
#148 = AXIS2_PLACEMENT_3D ( 'NONE', #175, #19, #137 ) ;
#149 = PLANE ( 'NONE',  #181 ) ;
#150 = SECURITY_CLASSIFICATION ( '', '', #23 ) ;
#151 = FACE_OUTER_BOUND ( 'NONE', #10, .T. ) ;
#152 = CARTESIAN_POINT ( 'NONE',  ( 1.972686956446370535E-13, 2.999999999999995559, 56.50000000000000000 ) ) ;
#153 = PLANE ( 'NONE',  #3 ) ;
#154 = ADVANCED_FACE ( 'NONE', ( #158 ), #153, .F. ) ;
#155 = DIRECTION ( 'NONE',  ( -3.491481338843133355E-15, 1.224646799147353207E-16, -1.000000000000000000 ) ) ;
#156 = DESIGN_CONTEXT ( 'detailed design', #171, 'design' ) ;
#157 = APPLICATION_CONTEXT ( 'configuration controlled 3d designs of mechanical parts and assemblies' ) ;
#158 = FACE_OUTER_BOUND ( 'NONE', #147, .T. ) ;
#159 = APPROVAL_STATUS ( 'not_yet_approved' ) ;
#160 = PERSON_AND_ORGANIZATION_ROLE ( 'classification_officer' ) ;
#161 = APPROVAL_DATE_TIME ( #8, #177 ) ;
#162 = PRODUCT_DEFINITION ( 'UNKNOWN', '', #20, #156 ) ;
#163 = PERSON_AND_ORGANIZATION ( #45, #87 ) ;
#164 = APPLICATION_PROTOCOL_DEFINITION ( 'international standard', 'config_control_design', 1994, #171 ) ;
#165 = CC_DESIGN_DATE_AND_TIME_ASSIGNMENT ( #49, #24, ( #162 ) ) ;
#166 = EDGE_LOOP ( 'NONE', ( #199 ) ) ;
#167 = EDGE_LOOP ( 'NONE', ( #104 ) ) ;
#168 = ORIENTED_EDGE ( 'NONE', *, *, #106, .F. ) ;
#169 = DIRECTION ( 'NONE',  ( 0.0000000000000000000, 1.000000000000000000, 0.0000000000000000000 ) ) ;
#170 = ADVANCED_FACE ( 'NONE', ( #172 ), #48, .F. ) ;
#171 = APPLICATION_CONTEXT ( 'configuration controlled 3d designs of mechanical parts and assemblies' ) ;
#172 = FACE_OUTER_BOUND ( 'NONE', #41, .T. ) ;
#173 = APPROVAL_PERSON_ORGANIZATION ( #163, #177, #135 ) ;
#174 = FACE_BOUND ( 'NONE', #166, .T. ) ;
#175 = CARTESIAN_POINT ( 'NONE',  ( 0.0000000000000000000, 0.0000000000000000000, 0.0000000000000000000 ) ) ;
#176 = DATE_AND_TIME ( #130, #133 ) ;
#177 = APPROVAL ( #159, 'UNSPECIFIED' ) ;
#178 = PERSON_AND_ORGANIZATION ( #45, #87 ) ;
#179 = CIRCLE ( 'NONE', #145, 3.000000000000002665 ) ;
#180 = ORIENTED_EDGE ( 'NONE', *, *, #106, .T. ) ;
#181 = AXIS2_PLACEMENT_3D ( 'NONE', #28, #74, #57 ) ;
#182 = DIRECTION ( 'NONE',  ( -3.491481338843133355E-15, 1.224646799147353207E-16, -1.000000000000000000 ) ) ;
#183 = AXIS2_PLACEMENT_3D ( 'NONE', #78, #113, #124 ) ;
#184 = CC_DESIGN_PERSON_AND_ORGANIZATION_ASSIGNMENT ( #69, #191, ( #20 ) ) ;
#185 = DIRECTION ( 'NONE',  ( 4.275831445896959482E-31, 1.000000000000000000, 1.224646799147353207E-16 ) ) ;
#186 = CARTESIAN_POINT ( 'NONE',  ( 4.538925740496073362E-14, 2.249639673992782033E-32, 13.00000000000000000 ) ) ;
#187 = CC_DESIGN_PERSON_AND_ORGANIZATION_ASSIGNMENT ( #6, #35, ( #89 ) ) ;
#188 = CARTESIAN_POINT ( 'NONE',  ( 4.538925740496073362E-14, 2.999999999999995559, 13.00000000000000000 ) ) ;
#189 = DIRECTION ( 'NONE',  ( -4.275831445896958607E-31, -1.000000000000000000, -1.224646799147353207E-16 ) ) ;
#190 = VERTEX_POINT ( 'NONE', #188 ) ;
#191 = PERSON_AND_ORGANIZATION_ROLE ( 'creator' ) ;
#192 = AXIS2_PLACEMENT_3D ( 'NONE', #139, #29, #1 ) ;
#193 = APPROVAL_ROLE ( '' ) ;
#194 = APPROVAL_DATE_TIME ( #146, #63 ) ;
#195 = DIRECTION ( 'NONE',  ( 0.0000000000000000000, 0.0000000000000000000, 1.000000000000000000 ) ) ;
#196 = CARTESIAN_POINT ( 'NONE',  ( -6.413633676021355712E-31, 2.249599866068799511E-32, -1.836937693084290584E-16 ) ) ;
#197 = EDGE_LOOP ( 'NONE', ( #120 ) ) ;
#198 = EDGE_LOOP ( 'NONE', ( #168 ) ) ;
#199 = ORIENTED_EDGE ( 'NONE', *, *, #142, .T. ) ;
#200 = EDGE_CURVE ( 'NONE', #190, #190, #67, .T. ) ;
#201 = DIRECTION ( 'NONE',  ( 3.491481338843133355E-15, -1.224646799147353207E-16, 1.000000000000000000 ) ) ;
#202 = APPROVAL_PERSON_ORGANIZATION ( #37, #125, #118 ) ;
#203 = CYLINDRICAL_SURFACE ( 'NONE', #148, 2.999999999999996447 ) ;
ENDSEC;
END-ISO-10303-21;
