ISO-10303-21;
HEADER;
FILE_DESCRIPTION (( 'STEP AP203' ),
    '1' );
FILE_NAME ('57242.step',
    '2021-11-15T14:47:02',
    ( '' ),
    ( '' ),
    'SwSTEP 2.0',
    'SolidWorks 2019',
    '' );
FILE_SCHEMA (( 'CONFIG_CONTROL_DESIGN' ));
ENDSEC;

DATA;
#1 = ORIENTED_EDGE ( 'NONE', *, *, #20, .T. ) ;
#2 = PERSON_AND_ORGANIZATION ( #190, #206 ) ;
#3 = CALENDAR_DATE ( 2021, 15, 11 ) ;
#4 = CLOSED_SHELL ( 'NONE', ( #42, #152, #123, #59, #26 ) ) ;
#5 = EDGE_CURVE ( 'NONE', #199, #199, #112, .T. ) ;
#6 = CALENDAR_DATE ( 2021, 15, 11 ) ;
#7 = DIRECTION ( 'NONE',  ( -3.491481338843133355E-15, 1.224646799147353207E-16, -1.000000000000000000 ) ) ;
#8 = PERSON_AND_ORGANIZATION_ROLE ( 'design_owner' ) ;
#9 = ADVANCED_FACE ( 'NONE', ( #102, #165 ), #84, .T. ) ;
#10 = DIRECTION ( 'NONE',  ( -3.491481338843133355E-15, 1.224646799147353207E-16, -1.000000000000000000 ) ) ;
#11 = ORIENTED_EDGE ( 'NONE', *, *, #5, .F. ) ;
#12 = ORIENTED_EDGE ( 'NONE', *, *, #138, .F. ) ;
#13 = CARTESIAN_POINT ( 'NONE',  ( -3.206816838010677856E-31, 1.124799933034399755E-32, -9.184688465421452921E-17 ) ) ;
#14 = DIRECTION ( 'NONE',  ( 3.491481338843133355E-15, -1.244996138440932305E-16, 1.000000000000000000 ) ) ;
#15 = CARTESIAN_POINT ( 'NONE',  ( 1.972686956446370535E-13, -6.919254415182545337E-15, 56.50000000000000000 ) ) ;
#16 = PERSON_AND_ORGANIZATION_ROLE ( 'classification_officer' ) ;
#17 = CLOSED_SHELL ( 'NONE', ( #91, #9, #170 ) ) ;
#18 = SECURITY_CLASSIFICATION ( '', '', #148 ) ;
#19 = PERSON_AND_ORGANIZATION ( #190, #206 ) ;
#20 = EDGE_CURVE ( 'NONE', #196, #196, #121, .T. ) ;
#21 = DATE_TIME_ROLE ( 'classification_date' ) ;
#22 = AXIS2_PLACEMENT_3D ( 'NONE', #49, #101, #185 ) ;
#23 = CALENDAR_DATE ( 2021, 15, 11 ) ;
#24 = APPROVAL_STATUS ( 'not_yet_approved' ) ;
#25 = FACE_OUTER_BOUND ( 'NONE', #200, .T. ) ;
#26 = ADVANCED_FACE ( 'NONE', ( #25 ), #141, .F. ) ;
#27 = CARTESIAN_POINT ( 'NONE',  ( 4.538925740496073362E-14, 2.249639673992782033E-32, 13.00000000000000000 ) ) ;
#28 = ORIENTED_EDGE ( 'NONE', *, *, #20, .F. ) ;
#29 = CARTESIAN_POINT ( 'NONE',  ( 1.990144363140586139E-13, 2.499999999999995559, 57.00000000000000000 ) ) ;
#30 = EDGE_LOOP ( 'NONE', ( #1 ) ) ;
#31 = DIRECTION ( 'NONE',  ( 3.491481338843133355E-15, -1.224646799147353207E-16, 1.000000000000000000 ) ) ;
#32 = DIRECTION ( 'NONE',  ( 0.0000000000000000000, 1.000000000000000000, 0.0000000000000000000 ) ) ;
#33 = EDGE_CURVE ( 'NONE', #82, #82, #201, .T. ) ;
#34 = AXIS2_PLACEMENT_3D ( 'NONE', #168, #7, #86 ) ;
#35 = CC_DESIGN_APPROVAL ( #129, ( #207 ) ) ;
#36 = ORIENTED_EDGE ( 'NONE', *, *, #33, .T. ) ;
#37 = PERSON_AND_ORGANIZATION_ROLE ( 'design_supplier' ) ;
#38 = PERSON_AND_ORGANIZATION ( #190, #206 ) ;
#39 = CIRCLE ( 'NONE', #92, 3.000000000000000000 ) ;
#40 = APPLICATION_CONTEXT ( 'configuration controlled 3d designs of mechanical parts and assemblies' ) ;
#41 = APPROVAL_PERSON_ORGANIZATION ( #155, #154, #77 ) ;
#42 = ADVANCED_FACE ( 'NONE', ( #119, #146 ), #160, .T. ) ;
#43 = DIRECTION ( 'NONE',  ( 3.491481338843133355E-15, -1.244996138440932305E-16, 1.000000000000000000 ) ) ;
#44 = PERSON_AND_ORGANIZATION ( #190, #206 ) ;
#45 = CARTESIAN_POINT ( 'NONE',  ( 0.0000000000000000000, 0.0000000000000000000, 0.0000000000000000000 ) ) ;
#46 = CARTESIAN_POINT ( 'NONE',  ( 4.538925740496072731E-14, -2.500000000000002220, 12.99999999999999822 ) ) ;
#47 = DIRECTION ( 'NONE',  ( -3.491481338843133355E-15, 1.224646799147353207E-16, -1.000000000000000000 ) ) ;
#48 = CARTESIAN_POINT ( 'NONE',  ( 4.538925740496072731E-14, -1.618494979973211750E-15, 12.99999999999999822 ) ) ;
#49 = CARTESIAN_POINT ( 'NONE',  ( 4.538925740496072731E-14, -1.734723475976807094E-15, 12.99999999999999822 ) ) ;
#50 = EDGE_LOOP ( 'NONE', ( #222 ) ) ;
#51 = APPROVAL_ROLE ( '' ) ;
#52 = DIRECTION ( 'NONE',  ( 0.0000000000000000000, -1.000000000000000000, 0.0000000000000000000 ) ) ;
#53 = UNCERTAINTY_MEASURE_WITH_UNIT (LENGTH_MEASURE( 1.000000000000000082E-05 ), #144, 'distance_accuracy_value', 'NONE');
#54 = APPROVAL_PERSON_ORGANIZATION ( #108, #173, #51 ) ;
#55 = PERSON_AND_ORGANIZATION ( #190, #206 ) ;
#56 = MANIFOLD_SOLID_BREP ( 'Corps-Déplacer/Copier1[1]', #4 ) ;
#57 = VERTEX_POINT ( 'NONE', #126 ) ;
#58 = DIRECTION ( 'NONE',  ( -4.275831445896958607E-31, -1.000000000000000000, -1.224646799147353207E-16 ) ) ;
#59 = ADVANCED_FACE ( 'NONE', ( #184, #113 ), #181, .F. ) ;
#60 = FACE_OUTER_BOUND ( 'NONE', #133, .T. ) ;
#61 = ORIENTED_EDGE ( 'NONE', *, *, #106, .F. ) ;
#62 = FACE_OUTER_BOUND ( 'NONE', #169, .T. ) ;
#63 = EDGE_LOOP ( 'NONE', ( #36 ) ) ;
#64 = AXIS2_PLACEMENT_3D ( 'NONE', #48, #14, #118 ) ;
#65 = CARTESIAN_POINT ( 'NONE',  ( 4.538925740496073362E-14, 2.249639673992782033E-32, 13.00000000000000000 ) ) ;
#66 = PRODUCT_DEFINITION_SHAPE ( 'NONE', 'NONE',  #202 ) ;
#67 = EDGE_CURVE ( 'NONE', #57, #57, #69, .T. ) ;
#68 = CARTESIAN_POINT ( 'NONE',  ( 4.538925740496072731E-14, -1.618494979973211750E-15, 12.99999999999999822 ) ) ;
#69 = CIRCLE ( 'NONE', #85, 3.000000000000002665 ) ;
#70 = PERSON_AND_ORGANIZATION_ROLE ( 'creator' ) ;
#71 = CC_DESIGN_PERSON_AND_ORGANIZATION_ASSIGNMENT ( #44, #127, ( #202 ) ) ;
#72 = LOCAL_TIME ( 15, 47, 2.000000000000000000, #197 ) ;
#73 = APPROVAL_ROLE ( '' ) ;
#74 = AXIS2_PLACEMENT_3D ( 'NONE', #68, #122, #52 ) ;
#75 = APPLICATION_CONTEXT ( 'configuration controlled 3d designs of mechanical parts and assemblies' ) ;
#76 = DIRECTION ( 'NONE',  ( 1.000000000000000000, 0.0000000000000000000, 0.0000000000000000000 ) ) ;
#77 = APPROVAL_ROLE ( '' ) ;
#78 = AXIS2_PLACEMENT_3D ( 'NONE', #193, #215, #76 ) ;
#79 = CARTESIAN_POINT ( 'NONE',  ( 4.538925740496072731E-14, -2.500000000000002220, 12.99999999999999822 ) ) ;
#80 = DIRECTION ( 'NONE',  ( 0.0000000000000000000, 1.000000000000000000, 0.0000000000000000000 ) ) ;
#81 = EDGE_LOOP ( 'NONE', ( #61 ) ) ;
#82 = VERTEX_POINT ( 'NONE', #29 ) ;
#83 = DIRECTION ( 'NONE',  ( 3.491481338843133355E-15, -1.224646799147353207E-16, 1.000000000000000000 ) ) ;
#84 = CYLINDRICAL_SURFACE ( 'NONE', #216, 2.500000000000000444 ) ;
#85 = AXIS2_PLACEMENT_3D ( 'NONE', #15, #180, #80 ) ;
#86 = DIRECTION ( 'NONE',  ( 0.0000000000000000000, 1.000000000000000000, 0.0000000000000000000 ) ) ;
#87 = EDGE_LOOP ( 'NONE', ( #11 ) ) ;
#88 = APPROVAL_DATE_TIME ( #150, #173 ) ;
#89 = APPROVAL_STATUS ( 'not_yet_approved' ) ;
#90 = COORDINATED_UNIVERSAL_TIME_OFFSET ( 1, 0, .AHEAD. ) ;
#91 = ADVANCED_FACE ( 'NONE', ( #183 ), #223, .T. ) ;
#92 = AXIS2_PLACEMENT_3D ( 'NONE', #157, #95, #32 ) ;
#93 = DATE_AND_TIME ( #6, #192 ) ;
#94 = PRODUCT_RELATED_PRODUCT_CATEGORY ( 'detail', '', ( #203 ) ) ;
#95 = DIRECTION ( 'NONE',  ( -3.491481338843133355E-15, 1.244996138440932305E-16, -1.000000000000000000 ) ) ;
#96 =( NAMED_UNIT ( * ) SI_UNIT ( $, .STERADIAN. ) SOLID_ANGLE_UNIT ( ) );
#97 = PLANE ( 'NONE',  #156 ) ;
#98 = EDGE_LOOP ( 'NONE', ( #12 ) ) ;
#99 = CARTESIAN_POINT ( 'NONE',  ( 5.510913009090914186E-14, 2.999999999999997780, 15.78388218141500765 ) ) ;
#100 = EDGE_LOOP ( 'NONE', ( #161 ) ) ;
#101 = DIRECTION ( 'NONE',  ( 3.491481338843133355E-15, -1.244996138440932305E-16, 1.000000000000000000 ) ) ;
#102 = FACE_OUTER_BOUND ( 'NONE', #219, .T. ) ;
#103 = FACE_BOUND ( 'NONE', #63, .T. ) ;
#104 = CONICAL_SURFACE ( 'NONE', #34, 2.500000000000002665, 0.7853981633974479459 ) ;
#105 = CC_DESIGN_APPROVAL ( #173, ( #18 ) ) ;
#106 = EDGE_CURVE ( 'NONE', #178, #178, #39, .T. ) ;
#107 = SHAPE_DEFINITION_REPRESENTATION ( #66, #149 ) ;
#108 = PERSON_AND_ORGANIZATION ( #190, #206 ) ;
#109 = AXIS2_PLACEMENT_3D ( 'NONE', #134, #132, #114 ) ;
#110 = DATE_AND_TIME ( #171, #177 ) ;
#111 = APPROVAL_STATUS ( 'not_yet_approved' ) ;
#112 = CIRCLE ( 'NONE', #64, 2.500000000000000444 ) ;
#113 = FACE_OUTER_BOUND ( 'NONE', #100, .T. ) ;
#114 = DIRECTION ( 'NONE',  ( 0.0000000000000000000, 1.000000000000000000, 0.0000000000000000000 ) ) ;
#115 = ORIENTED_EDGE ( 'NONE', *, *, #67, .T. ) ;
#116 = DIRECTION ( 'NONE',  ( 4.275831445896958607E-31, 1.000000000000000000, 1.224646799147353207E-16 ) ) ;
#117 = LOCAL_TIME ( 15, 47, 2.000000000000000000, #139 ) ;
#118 = DIRECTION ( 'NONE',  ( 0.0000000000000000000, -1.000000000000000000, 0.0000000000000000000 ) ) ;
#119 = FACE_OUTER_BOUND ( 'NONE', #145, .T. ) ;
#120 = ORIENTED_EDGE ( 'NONE', *, *, #33, .F. ) ;
#121 = CIRCLE ( 'NONE', #74, 2.500000000000000444 ) ;
#122 = DIRECTION ( 'NONE',  ( 3.491481338843133355E-15, -1.244996138440932305E-16, 1.000000000000000000 ) ) ;
#123 = ADVANCED_FACE ( 'NONE', ( #62 ), #97, .F. ) ;
#124 =( NAMED_UNIT ( * ) PLANE_ANGLE_UNIT ( ) SI_UNIT ( $, .RADIAN. ) );
#125 = AXIS2_PLACEMENT_3D ( 'NONE', #13, #83, #130 ) ;
#126 = CARTESIAN_POINT ( 'NONE',  ( 1.972686956446370535E-13, 2.999999999999995559, 56.50000000000000000 ) ) ;
#127 = PERSON_AND_ORGANIZATION_ROLE ( 'creator' ) ;
#128 = CARTESIAN_POINT ( 'NONE',  ( -1.086720196074569403E-30, 3.875038461832082960E-32, -3.112490346102330517E-16 ) ) ;
#129 = APPROVAL ( #111, 'UNSPECIFIED' ) ;
#130 = DIRECTION ( 'NONE',  ( -4.275831445896958607E-31, -1.000000000000000000, -1.224646799147353207E-16 ) ) ;
#131 = AXIS2_PLACEMENT_3D ( 'NONE', #65, #204, #164 ) ;
#132 = DIRECTION ( 'NONE',  ( -3.491481338843133355E-15, 1.224646799147353207E-16, -1.000000000000000000 ) ) ;
#133 = EDGE_LOOP ( 'NONE', ( #163 ) ) ;
#134 = CARTESIAN_POINT ( 'NONE',  ( 1.990144363140586139E-13, -6.980486755139912911E-15, 57.00000000000000000 ) ) ;
#135 =( GEOMETRIC_REPRESENTATION_CONTEXT ( 3 ) GLOBAL_UNCERTAINTY_ASSIGNED_CONTEXT ( ( #53 ) ) GLOBAL_UNIT_ASSIGNED_CONTEXT ( ( #144, #124, #96 ) ) REPRESENTATION_CONTEXT ( 'NONE', 'WORKASPACE' ) );
#136 = DIRECTION ( 'NONE',  ( -4.346880784298277610E-31, -1.000000000000000000, -1.244996138440932305E-16 ) ) ;
#137 = DATE_AND_TIME ( #3, #117 ) ;
#138 = EDGE_CURVE ( 'NONE', #162, #162, #211, .T. ) ;
#139 = COORDINATED_UNIVERSAL_TIME_OFFSET ( 1, 0, .AHEAD. ) ;
#140 = APPROVAL_DATE_TIME ( #93, #154 ) ;
#141 = PLANE ( 'NONE',  #176 ) ;
#142 = CARTESIAN_POINT ( 'NONE',  ( 1.990144363140586139E-13, 1.874699728327313799E-32, 57.00000000000000000 ) ) ;
#143 = ORIENTED_EDGE ( 'NONE', *, *, #138, .T. ) ;
#144 =( LENGTH_UNIT ( ) NAMED_UNIT ( * ) SI_UNIT ( .MILLI., .METRE. ) );
#145 = EDGE_LOOP ( 'NONE', ( #115 ) ) ;
#146 = FACE_OUTER_BOUND ( 'NONE', #81, .T. ) ;
#147 = PLANE ( 'NONE',  #125 ) ;
#148 = SECURITY_CLASSIFICATION_LEVEL ( 'unclassified' ) ;
#149 = ADVANCED_BREP_SHAPE_REPRESENTATION ( '57242', ( #56, #205, #78 ), #135 ) ;
#150 = DATE_AND_TIME ( #186, #151 ) ;
#151 = LOCAL_TIME ( 15, 47, 2.000000000000000000, #90 ) ;
#152 = ADVANCED_FACE ( 'NONE', ( #60, #103 ), #104, .T. ) ;
#153 = DATE_AND_TIME ( #23, #72 ) ;
#154 = APPROVAL ( #24, 'UNSPECIFIED' ) ;
#155 = PERSON_AND_ORGANIZATION ( #190, #206 ) ;
#156 = AXIS2_PLACEMENT_3D ( 'NONE', #142, #47, #116 ) ;
#157 = CARTESIAN_POINT ( 'NONE',  ( 5.510913009090914186E-14, -2.081315732550427583E-15, 15.78388218141500765 ) ) ;
#158 = MECHANICAL_CONTEXT ( 'NONE', #40, 'mechanical' ) ;
#159 = CC_DESIGN_APPROVAL ( #154, ( #202 ) ) ;
#160 = CYLINDRICAL_SURFACE ( 'NONE', #189, 3.000000000000000000 ) ;
#161 = ORIENTED_EDGE ( 'NONE', *, *, #106, .T. ) ;
#162 = VERTEX_POINT ( 'NONE', #217 ) ;
#163 = ORIENTED_EDGE ( 'NONE', *, *, #67, .F. ) ;
#164 = DIRECTION ( 'NONE',  ( -4.275831445896958607E-31, -1.000000000000000000, -1.224646799147353207E-16 ) ) ;
#165 = FACE_OUTER_BOUND ( 'NONE', #87, .T. ) ;
#166 = CC_DESIGN_PERSON_AND_ORGANIZATION_ASSIGNMENT ( #55, #16, ( #18 ) ) ;
#167 = AXIS2_PLACEMENT_3D ( 'NONE', #128, #43, #218 ) ;
#168 = CARTESIAN_POINT ( 'NONE',  ( 1.990144363140586139E-13, -6.980486755139912911E-15, 57.00000000000000000 ) ) ;
#169 = EDGE_LOOP ( 'NONE', ( #120 ) ) ;
#170 = ADVANCED_FACE ( 'NONE', ( #198 ), #147, .F. ) ;
#171 = CALENDAR_DATE ( 2021, 15, 11 ) ;
#172 = DATE_TIME_ROLE ( 'creation_date' ) ;
#173 = APPROVAL ( #89, 'UNSPECIFIED' ) ;
#174 = COORDINATED_UNIVERSAL_TIME_OFFSET ( 1, 0, .AHEAD. ) ;
#175 = APPLICATION_PROTOCOL_DEFINITION ( 'international standard', 'config_control_design', 1994, #75 ) ;
#176 = AXIS2_PLACEMENT_3D ( 'NONE', #27, #31, #58 ) ;
#177 = LOCAL_TIME ( 15, 47, 2.000000000000000000, #191 ) ;
#178 = VERTEX_POINT ( 'NONE', #99 ) ;
#179 = CC_DESIGN_PERSON_AND_ORGANIZATION_ASSIGNMENT ( #195, #8, ( #203 ) ) ;
#180 = DIRECTION ( 'NONE',  ( -3.491481338843133355E-15, 1.224646799147353207E-16, -1.000000000000000000 ) ) ;
#181 = TOROIDAL_SURFACE ( 'NONE', #22, 10.50000000000000000, 8.000000000000000000 ) ;
#182 = CC_DESIGN_SECURITY_CLASSIFICATION ( #18, ( #207 ) ) ;
#183 = FACE_OUTER_BOUND ( 'NONE', #50, .T. ) ;
#184 = FACE_OUTER_BOUND ( 'NONE', #30, .T. ) ;
#185 = DIRECTION ( 'NONE',  ( -4.404297637062081908E-31, -1.000000000000000000, -1.244996138440932305E-16 ) ) ;
#186 = CALENDAR_DATE ( 2021, 15, 11 ) ;
#187 = DIRECTION ( 'NONE',  ( 3.491481338843133355E-15, -1.244996138440932305E-16, 1.000000000000000000 ) ) ;
#188 = DESIGN_CONTEXT ( 'detailed design', #75, 'design' ) ;
#189 = AXIS2_PLACEMENT_3D ( 'NONE', #45, #10, #221 ) ;
#190 = PERSON ( 'UNSPECIFIED', 'UNSPECIFIED', 'UNSPECIFIED', ('UNSPECIFIED'), ('UNSPECIFIED'), ('UNSPECIFIED') ) ;
#191 = COORDINATED_UNIVERSAL_TIME_OFFSET ( 1, 0, .AHEAD. ) ;
#192 = LOCAL_TIME ( 15, 47, 2.000000000000000000, #174 ) ;
#193 = CARTESIAN_POINT ( 'NONE',  ( 0.0000000000000000000, 0.0000000000000000000, 0.0000000000000000000 ) ) ;
#194 = CC_DESIGN_DATE_AND_TIME_ASSIGNMENT ( #110, #21, ( #18 ) ) ;
#195 = PERSON_AND_ORGANIZATION ( #190, #206 ) ;
#196 = VERTEX_POINT ( 'NONE', #46 ) ;
#197 = COORDINATED_UNIVERSAL_TIME_OFFSET ( 1, 0, .AHEAD. ) ;
#198 = FACE_OUTER_BOUND ( 'NONE', #98, .T. ) ;
#199 = VERTEX_POINT ( 'NONE', #79 ) ;
#200 = EDGE_LOOP ( 'NONE', ( #28 ) ) ;
#201 = CIRCLE ( 'NONE', #109, 2.500000000000002665 ) ;
#202 = PRODUCT_DEFINITION ( 'UNKNOWN', '', #207, #188 ) ;
#203 = PRODUCT ( '57242', '57242', '', ( #158 ) ) ;
#204 = DIRECTION ( 'NONE',  ( 3.491481338843133355E-15, -1.224646799147353207E-16, 1.000000000000000000 ) ) ;
#205 = MANIFOLD_SOLID_BREP ( 'Corps-Déplacer/Copier1[2]', #17 ) ;
#206 = ORGANIZATION ( 'UNSPECIFIED', 'UNSPECIFIED', '' ) ;
#207 = PRODUCT_DEFINITION_FORMATION_WITH_SPECIFIED_SOURCE ( 'ANY', '', #203, .NOT_KNOWN. ) ;
#208 = CARTESIAN_POINT ( 'NONE',  ( 0.0000000000000000000, 0.0000000000000000000, 0.0000000000000000000 ) ) ;
#209 = CC_DESIGN_PERSON_AND_ORGANIZATION_ASSIGNMENT ( #19, #37, ( #207 ) ) ;
#210 = APPROVAL_DATE_TIME ( #137, #129 ) ;
#211 = CIRCLE ( 'NONE', #167, 2.500000000000000000 ) ;
#212 = CC_DESIGN_DATE_AND_TIME_ASSIGNMENT ( #153, #172, ( #202 ) ) ;
#213 = APPROVAL_PERSON_ORGANIZATION ( #2, #129, #73 ) ;
#214 = APPLICATION_PROTOCOL_DEFINITION ( 'international standard', 'config_control_design', 1994, #40 ) ;
#215 = DIRECTION ( 'NONE',  ( 0.0000000000000000000, 0.0000000000000000000, 1.000000000000000000 ) ) ;
#216 = AXIS2_PLACEMENT_3D ( 'NONE', #208, #187, #136 ) ;
#217 = CARTESIAN_POINT ( 'NONE',  ( -2.173440392149138805E-30, -2.500000000000000000, -6.224980692204661034E-16 ) ) ;
#218 = DIRECTION ( 'NONE',  ( -4.346880784298277610E-31, -1.000000000000000000, -1.244996138440932305E-16 ) ) ;
#219 = EDGE_LOOP ( 'NONE', ( #143 ) ) ;
#220 = CC_DESIGN_PERSON_AND_ORGANIZATION_ASSIGNMENT ( #38, #70, ( #207 ) ) ;
#221 = DIRECTION ( 'NONE',  ( 4.275831445896959482E-31, 1.000000000000000000, 1.224646799147353207E-16 ) ) ;
#222 = ORIENTED_EDGE ( 'NONE', *, *, #5, .T. ) ;
#223 = PLANE ( 'NONE',  #131 ) ;
ENDSEC;
END-ISO-10303-21;
