ISO-10303-21;
HEADER;
FILE_DESCRIPTION (( 'STEP AP203' ),
    '1' );
FILE_NAME ('57241.step',
    '2021-11-15T14:47:02',
    ( '' ),
    ( '' ),
    'SwSTEP 2.0',
    'SolidWorks 2019',
    '' );
FILE_SCHEMA (( 'CONFIG_CONTROL_DESIGN' ));
ENDSEC;

DATA;
#1 = PLANE ( 'NONE',  #108 ) ;
#2 = EDGE_LOOP ( 'NONE', ( #171 ) ) ;
#3 = PRODUCT_RELATED_PRODUCT_CATEGORY ( 'detail', '', ( #109 ) ) ;
#4 = CARTESIAN_POINT ( 'NONE',  ( 3.840629472727446691E-14, 2.249639673992782306E-32, 11.00000000000000000 ) ) ;
#5 = DIRECTION ( 'NONE',  ( 3.491481338843133355E-15, -1.224646799147353207E-16, 1.000000000000000000 ) ) ;
#6 = DIRECTION ( 'NONE',  ( -4.275831445896958607E-31, -1.000000000000000000, -1.224646799147353207E-16 ) ) ;
#7 = CARTESIAN_POINT ( 'NONE',  ( 3.840629472727446060E-14, -2.249999999999999556, 10.99999999999999822 ) ) ;
#8 = AXIS2_PLACEMENT_3D ( 'NONE', #4, #65, #6 ) ;
#9 = MECHANICAL_CONTEXT ( 'NONE', #13, 'mechanical' ) ;
#10 = PRODUCT_DEFINITION ( 'UNKNOWN', '', #57, #69 ) ;
#11 = APPLICATION_PROTOCOL_DEFINITION ( 'international standard', 'config_control_design', 1994, #151 ) ;
#12 = CC_DESIGN_PERSON_AND_ORGANIZATION_ASSIGNMENT ( #62, #32, ( #57 ) ) ;
#13 = APPLICATION_CONTEXT ( 'configuration controlled 3d designs of mechanical parts and assemblies' ) ;
#14 = DATE_AND_TIME ( #47, #75 ) ;
#15 = ORIENTED_EDGE ( 'NONE', *, *, #172, .F. ) ;
#16 = DATE_AND_TIME ( #56, #158 ) ;
#17 = AXIS2_PLACEMENT_3D ( 'NONE', #216, #218, #39 ) ;
#18 = ORIENTED_EDGE ( 'NONE', *, *, #161, .F. ) ;
#19 = EDGE_CURVE ( 'NONE', #184, #184, #166, .T. ) ;
#20 = FACE_OUTER_BOUND ( 'NONE', #209, .T. ) ;
#21 = DIRECTION ( 'NONE',  ( 3.491481338843133355E-15, -1.244996138440932305E-16, 1.000000000000000000 ) ) ;
#22 = EDGE_LOOP ( 'NONE', ( #188 ) ) ;
#23 = CIRCLE ( 'NONE', #43, 2.500000000000002665 ) ;
#24 = LOCAL_TIME ( 15, 47, 2.000000000000000000, #73 ) ;
#25 = DIRECTION ( 'NONE',  ( 3.491481338843133355E-15, -1.244996138440932305E-16, 1.000000000000000000 ) ) ;
#26 = PERSON_AND_ORGANIZATION_ROLE ( 'design_owner' ) ;
#27 = PERSON_AND_ORGANIZATION ( #197, #202 ) ;
#28 = VERTEX_POINT ( 'NONE', #7 ) ;
#29 = ADVANCED_FACE ( 'NONE', ( #52, #66 ), #86, .T. ) ;
#30 = PERSON_AND_ORGANIZATION_ROLE ( 'classification_officer' ) ;
#31 = PERSON_AND_ORGANIZATION ( #197, #202 ) ;
#32 = PERSON_AND_ORGANIZATION_ROLE ( 'creator' ) ;
#33 = DIRECTION ( 'NONE',  ( -4.275831445896958607E-31, -1.000000000000000000, -1.224646799147353207E-16 ) ) ;
#34 = ORIENTED_EDGE ( 'NONE', *, *, #199, .T. ) ;
#35 = DIRECTION ( 'NONE',  ( 0.0000000000000000000, 1.000000000000000000, 0.0000000000000000000 ) ) ;
#36 = EDGE_LOOP ( 'NONE', ( #177 ) ) ;
#37 = CARTESIAN_POINT ( 'NONE',  ( 0.0000000000000000000, 0.0000000000000000000, 0.0000000000000000000 ) ) ;
#38 = CC_DESIGN_PERSON_AND_ORGANIZATION_ASSIGNMENT ( #31, #117, ( #57 ) ) ;
#39 = DIRECTION ( 'NONE',  ( 0.0000000000000000000, -1.000000000000000000, 0.0000000000000000000 ) ) ;
#40 = PRODUCT_DEFINITION_SHAPE ( 'NONE', 'NONE',  #10 ) ;
#41 = CC_DESIGN_PERSON_AND_ORGANIZATION_ASSIGNMENT ( #137, #30, ( #178 ) ) ;
#42 = DATE_AND_TIME ( #198, #24 ) ;
#43 = AXIS2_PLACEMENT_3D ( 'NONE', #125, #191, #35 ) ;
#44 = CC_DESIGN_APPROVAL ( #192, ( #57 ) ) ;
#45 = CARTESIAN_POINT ( 'NONE',  ( 1.990144363140586139E-13, 2.499999999999995559, 57.00000000000000000 ) ) ;
#46 = TOROIDAL_SURFACE ( 'NONE', #55, 10.25000000000000000, 8.000000000000000000 ) ;
#47 = CALENDAR_DATE ( 2021, 15, 11 ) ;
#48 = APPROVAL_ROLE ( '' ) ;
#49 = PLANE ( 'NONE',  #8 ) ;
#50 = CC_DESIGN_APPROVAL ( #116, ( #178 ) ) ;
#51 = ADVANCED_BREP_SHAPE_REPRESENTATION ( '57241', ( #129, #127, #67 ), #142 ) ;
#52 = FACE_OUTER_BOUND ( 'NONE', #102, .T. ) ;
#53 = DIRECTION ( 'NONE',  ( 4.275831445896958607E-31, 1.000000000000000000, 1.224646799147353207E-16 ) ) ;
#54 = DIRECTION ( 'NONE',  ( 3.491481338843133355E-15, -1.224646799147353207E-16, 1.000000000000000000 ) ) ;
#55 = AXIS2_PLACEMENT_3D ( 'NONE', #126, #159, #156 ) ;
#56 = CALENDAR_DATE ( 2021, 15, 11 ) ;
#57 = PRODUCT_DEFINITION_FORMATION_WITH_SPECIFIED_SOURCE ( 'ANY', '', #109, .NOT_KNOWN. ) ;
#58 = DIRECTION ( 'NONE',  ( -3.491481338843133355E-15, 1.244996138440932305E-16, -1.000000000000000000 ) ) ;
#59 = CARTESIAN_POINT ( 'NONE',  ( 5.021426575039755922E-14, -2.155773365691574346E-15, 14.38193731461716673 ) ) ;
#60 = DATE_AND_TIME ( #169, #223 ) ;
#61 = AXIS2_PLACEMENT_3D ( 'NONE', #122, #143, #88 ) ;
#62 = PERSON_AND_ORGANIZATION ( #197, #202 ) ;
#63 = COORDINATED_UNIVERSAL_TIME_OFFSET ( 1, 0, .AHEAD. ) ;
#64 = FACE_OUTER_BOUND ( 'NONE', #179, .T. ) ;
#65 = DIRECTION ( 'NONE',  ( 3.491481338843133355E-15, -1.224646799147353207E-16, 1.000000000000000000 ) ) ;
#66 = FACE_OUTER_BOUND ( 'NONE', #208, .T. ) ;
#67 = AXIS2_PLACEMENT_3D ( 'NONE', #163, #150, #204 ) ;
#68 = CC_DESIGN_DATE_AND_TIME_ASSIGNMENT ( #60, #80, ( #178 ) ) ;
#69 = DESIGN_CONTEXT ( 'detailed design', #151, 'design' ) ;
#70 = ORIENTED_EDGE ( 'NONE', *, *, #210, .F. ) ;
#71 = ADVANCED_FACE ( 'NONE', ( #82, #20 ), #46, .F. ) ;
#72 = PLANE ( 'NONE',  #195 ) ;
#73 = COORDINATED_UNIVERSAL_TIME_OFFSET ( 1, 0, .AHEAD. ) ;
#74 = APPLICATION_PROTOCOL_DEFINITION ( 'international standard', 'config_control_design', 1994, #13 ) ;
#75 = LOCAL_TIME ( 15, 47, 2.000000000000000000, #63 ) ;
#76 = CARTESIAN_POINT ( 'NONE',  ( 1.972686956446370535E-13, 2.999999999999995559, 56.50000000000000000 ) ) ;
#77 = SHAPE_DEFINITION_REPRESENTATION ( #40, #51 ) ;
#78 = ADVANCED_FACE ( 'NONE', ( #104 ), #49, .F. ) ;
#79 = DATE_TIME_ROLE ( 'creation_date' ) ;
#80 = DATE_TIME_ROLE ( 'classification_date' ) ;
#81 = AXIS2_PLACEMENT_3D ( 'NONE', #105, #5, #214 ) ;
#82 = FACE_OUTER_BOUND ( 'NONE', #36, .T. ) ;
#83 = ORIENTED_EDGE ( 'NONE', *, *, #199, .F. ) ;
#84 = DIRECTION ( 'NONE',  ( -4.346880784298276734E-31, -1.000000000000000000, -1.244996138440932305E-16 ) ) ;
#85 = ADVANCED_FACE ( 'NONE', ( #154 ), #139, .T. ) ;
#86 = CYLINDRICAL_SURFACE ( 'NONE', #61, 3.000000000000000000 ) ;
#87 = CIRCLE ( 'NONE', #136, 3.000000000000002665 ) ;
#88 = DIRECTION ( 'NONE',  ( 4.275831445896959482E-31, 1.000000000000000000, 1.224646799147353207E-16 ) ) ;
#89 = CC_DESIGN_DATE_AND_TIME_ASSIGNMENT ( #16, #79, ( #10 ) ) ;
#90 = CARTESIAN_POINT ( 'NONE',  ( 1.990144363140586139E-13, -6.980486755139912911E-15, 57.00000000000000000 ) ) ;
#91 = PERSON_AND_ORGANIZATION ( #197, #202 ) ;
#92 = CIRCLE ( 'NONE', #221, 3.000000000000000000 ) ;
#93 = LOCAL_TIME ( 15, 47, 2.000000000000000000, #187 ) ;
#94 = PERSON_AND_ORGANIZATION_ROLE ( 'creator' ) ;
#95 = VERTEX_POINT ( 'NONE', #133 ) ;
#96 = PERSON_AND_ORGANIZATION ( #197, #202 ) ;
#97 = CIRCLE ( 'NONE', #131, 2.250000000000000000 ) ;
#98 = APPROVAL_ROLE ( '' ) ;
#99 = EDGE_LOOP ( 'NONE', ( #34 ) ) ;
#100 = ORIENTED_EDGE ( 'NONE', *, *, #206, .F. ) ;
#101 = APPROVAL_PERSON_ORGANIZATION ( #91, #170, #219 ) ;
#102 = EDGE_LOOP ( 'NONE', ( #106 ) ) ;
#103 = AXIS2_PLACEMENT_3D ( 'NONE', #193, #25, #173 ) ;
#104 = FACE_OUTER_BOUND ( 'NONE', #2, .T. ) ;
#105 = CARTESIAN_POINT ( 'NONE',  ( 3.840629472727446691E-14, 2.249639673992782306E-32, 11.00000000000000000 ) ) ;
#106 = ORIENTED_EDGE ( 'NONE', *, *, #206, .T. ) ;
#107 = ORIENTED_EDGE ( 'NONE', *, *, #210, .T. ) ;
#108 = AXIS2_PLACEMENT_3D ( 'NONE', #130, #128, #53 ) ;
#109 = PRODUCT ( '57241', '57241', '', ( #9 ) ) ;
#110 = DIRECTION ( 'NONE',  ( -3.491481338843133355E-15, 1.224646799147353207E-16, -1.000000000000000000 ) ) ;
#111 = CARTESIAN_POINT ( 'NONE',  ( -1.956096352934224574E-30, -2.250000000000000000, -5.602482622984195128E-16 ) ) ;
#112 = APPROVAL_DATE_TIME ( #42, #170 ) ;
#113 = DIRECTION ( 'NONE',  ( -3.491481338843133355E-15, 1.224646799147353207E-16, -1.000000000000000000 ) ) ;
#114 = DIRECTION ( 'NONE',  ( 0.0000000000000000000, 1.000000000000000000, 0.0000000000000000000 ) ) ;
#115 = APPROVAL_DATE_TIME ( #167, #192 ) ;
#116 = APPROVAL ( #119, 'UNSPECIFIED' ) ;
#117 = PERSON_AND_ORGANIZATION_ROLE ( 'design_supplier' ) ;
#118 = CALENDAR_DATE ( 2021, 15, 11 ) ;
#119 = APPROVAL_STATUS ( 'not_yet_approved' ) ;
#120 = CC_DESIGN_APPROVAL ( #170, ( #10 ) ) ;
#121 = PERSON_AND_ORGANIZATION ( #197, #202 ) ;
#122 = CARTESIAN_POINT ( 'NONE',  ( 0.0000000000000000000, 0.0000000000000000000, 0.0000000000000000000 ) ) ;
#123 = CC_DESIGN_PERSON_AND_ORGANIZATION_ASSIGNMENT ( #27, #94, ( #10 ) ) ;
#124 = AXIS2_PLACEMENT_3D ( 'NONE', #37, #175, #141 ) ;
#125 = CARTESIAN_POINT ( 'NONE',  ( 1.990144363140586139E-13, -6.980486755139912911E-15, 57.00000000000000000 ) ) ;
#126 = CARTESIAN_POINT ( 'NONE',  ( 3.840629472727446060E-14, -1.734723475976807094E-15, 10.99999999999999822 ) ) ;
#127 = MANIFOLD_SOLID_BREP ( 'Corps-Déplacer/Copier1[2]', #134 ) ;
#128 = DIRECTION ( 'NONE',  ( -3.491481338843133355E-15, 1.224646799147353207E-16, -1.000000000000000000 ) ) ;
#129 = MANIFOLD_SOLID_BREP ( 'Corps-Déplacer/Copier1[1]', #162 ) ;
#130 = CARTESIAN_POINT ( 'NONE',  ( 1.990144363140586139E-13, 1.874699728327313799E-32, 57.00000000000000000 ) ) ;
#131 = AXIS2_PLACEMENT_3D ( 'NONE', #176, #21, #84 ) ;
#132 = APPROVAL_STATUS ( 'not_yet_approved' ) ;
#133 = CARTESIAN_POINT ( 'NONE',  ( 5.021426575039755922E-14, 2.999999999999997780, 14.38193731461716673 ) ) ;
#134 = CLOSED_SHELL ( 'NONE', ( #85, #149, #140 ) ) ;
#135 = ADVANCED_FACE ( 'NONE', ( #213 ), #1, .F. ) ;
#136 = AXIS2_PLACEMENT_3D ( 'NONE', #183, #113, #180 ) ;
#137 = PERSON_AND_ORGANIZATION ( #197, #202 ) ;
#138 = EDGE_LOOP ( 'NONE', ( #83 ) ) ;
#139 = PLANE ( 'NONE',  #81 ) ;
#140 = ADVANCED_FACE ( 'NONE', ( #64 ), #72, .F. ) ;
#141 = DIRECTION ( 'NONE',  ( -4.346880784298276734E-31, -1.000000000000000000, -1.244996138440932305E-16 ) ) ;
#142 =( GEOMETRIC_REPRESENTATION_CONTEXT ( 3 ) GLOBAL_UNCERTAINTY_ASSIGNED_CONTEXT ( ( #155 ) ) GLOBAL_UNIT_ASSIGNED_CONTEXT ( ( #217, #165, #200 ) ) REPRESENTATION_CONTEXT ( 'NONE', 'WORKASPACE' ) );
#143 = DIRECTION ( 'NONE',  ( -3.491481338843133355E-15, 1.224646799147353207E-16, -1.000000000000000000 ) ) ;
#144 = EDGE_LOOP ( 'NONE', ( #100 ) ) ;
#145 = FACE_OUTER_BOUND ( 'NONE', #22, .T. ) ;
#146 = FACE_BOUND ( 'NONE', #168, .T. ) ;
#147 = VERTEX_POINT ( 'NONE', #76 ) ;
#148 = COORDINATED_UNIVERSAL_TIME_OFFSET ( 1, 0, .AHEAD. ) ;
#149 = ADVANCED_FACE ( 'NONE', ( #145, #157 ), #194, .T. ) ;
#150 = DIRECTION ( 'NONE',  ( 0.0000000000000000000, 0.0000000000000000000, 1.000000000000000000 ) ) ;
#151 = APPLICATION_CONTEXT ( 'configuration controlled 3d designs of mechanical parts and assemblies' ) ;
#152 = APPROVAL_DATE_TIME ( #14, #116 ) ;
#153 = APPROVAL_STATUS ( 'not_yet_approved' ) ;
#154 = FACE_OUTER_BOUND ( 'NONE', #99, .T. ) ;
#155 = UNCERTAINTY_MEASURE_WITH_UNIT (LENGTH_MEASURE( 1.000000000000000082E-05 ), #217, 'distance_accuracy_value', 'NONE');
#156 = DIRECTION ( 'NONE',  ( -4.405084169291722739E-31, -1.000000000000000000, -1.244996138440932305E-16 ) ) ;
#157 = FACE_OUTER_BOUND ( 'NONE', #138, .T. ) ;
#158 = LOCAL_TIME ( 15, 47, 2.000000000000000000, #148 ) ;
#159 = DIRECTION ( 'NONE',  ( 3.491481338843133355E-15, -1.244996138440932305E-16, 1.000000000000000000 ) ) ;
#160 = FACE_OUTER_BOUND ( 'NONE', #144, .T. ) ;
#161 = EDGE_CURVE ( 'NONE', #164, #164, #23, .T. ) ;
#162 = CLOSED_SHELL ( 'NONE', ( #29, #181, #135, #71, #78 ) ) ;
#163 = CARTESIAN_POINT ( 'NONE',  ( 0.0000000000000000000, 0.0000000000000000000, 0.0000000000000000000 ) ) ;
#164 = VERTEX_POINT ( 'NONE', #45 ) ;
#165 =( NAMED_UNIT ( * ) PLANE_ANGLE_UNIT ( ) SI_UNIT ( $, .RADIAN. ) );
#166 = CIRCLE ( 'NONE', #103, 2.249999999999998224 ) ;
#167 = DATE_AND_TIME ( #118, #93 ) ;
#168 = EDGE_LOOP ( 'NONE', ( #212 ) ) ;
#169 = CALENDAR_DATE ( 2021, 15, 11 ) ;
#170 = APPROVAL ( #132, 'UNSPECIFIED' ) ;
#171 = ORIENTED_EDGE ( 'NONE', *, *, #19, .F. ) ;
#172 = EDGE_CURVE ( 'NONE', #182, #182, #97, .T. ) ;
#173 = DIRECTION ( 'NONE',  ( 0.0000000000000000000, -1.000000000000000000, 0.0000000000000000000 ) ) ;
#174 = CIRCLE ( 'NONE', #17, 2.249999999999998224 ) ;
#175 = DIRECTION ( 'NONE',  ( 3.491481338843133355E-15, -1.244996138440932305E-16, 1.000000000000000000 ) ) ;
#176 = CARTESIAN_POINT ( 'NONE',  ( -9.780481764671122871E-31, 3.487534615648873897E-32, -2.801241311492097564E-16 ) ) ;
#177 = ORIENTED_EDGE ( 'NONE', *, *, #19, .T. ) ;
#178 = SECURITY_CLASSIFICATION ( '', '', #186 ) ;
#179 = EDGE_LOOP ( 'NONE', ( #15 ) ) ;
#180 = DIRECTION ( 'NONE',  ( 0.0000000000000000000, 1.000000000000000000, 0.0000000000000000000 ) ) ;
#181 = ADVANCED_FACE ( 'NONE', ( #160, #146 ), #211, .T. ) ;
#182 = VERTEX_POINT ( 'NONE', #111 ) ;
#183 = CARTESIAN_POINT ( 'NONE',  ( 1.972686956446370535E-13, -6.919254415182545337E-15, 56.50000000000000000 ) ) ;
#184 = VERTEX_POINT ( 'NONE', #185 ) ;
#185 = CARTESIAN_POINT ( 'NONE',  ( 3.840629472727446060E-14, -2.249999999999999556, 10.99999999999999822 ) ) ;
#186 = SECURITY_CLASSIFICATION_LEVEL ( 'unclassified' ) ;
#187 = COORDINATED_UNIVERSAL_TIME_OFFSET ( 1, 0, .AHEAD. ) ;
#188 = ORIENTED_EDGE ( 'NONE', *, *, #172, .T. ) ;
#189 = CARTESIAN_POINT ( 'NONE',  ( -3.206816838010677856E-31, 1.124799933034399755E-32, -9.184688465421452921E-17 ) ) ;
#190 = APPROVAL_PERSON_ORGANIZATION ( #121, #192, #98 ) ;
#191 = DIRECTION ( 'NONE',  ( -3.491481338843133355E-15, 1.224646799147353207E-16, -1.000000000000000000 ) ) ;
#192 = APPROVAL ( #153, 'UNSPECIFIED' ) ;
#193 = CARTESIAN_POINT ( 'NONE',  ( 3.840629472727446060E-14, -1.369495752285025191E-15, 10.99999999999999822 ) ) ;
#194 = CYLINDRICAL_SURFACE ( 'NONE', #124, 2.249999999999999112 ) ;
#195 = AXIS2_PLACEMENT_3D ( 'NONE', #189, #54, #33 ) ;
#196 = CC_DESIGN_SECURITY_CLASSIFICATION ( #178, ( #57 ) ) ;
#197 = PERSON ( 'UNSPECIFIED', 'UNSPECIFIED', 'UNSPECIFIED', ('UNSPECIFIED'), ('UNSPECIFIED'), ('UNSPECIFIED') ) ;
#198 = CALENDAR_DATE ( 2021, 15, 11 ) ;
#199 = EDGE_CURVE ( 'NONE', #28, #28, #174, .T. ) ;
#200 =( NAMED_UNIT ( * ) SI_UNIT ( $, .STERADIAN. ) SOLID_ANGLE_UNIT ( ) );
#201 = DIRECTION ( 'NONE',  ( 0.0000000000000000000, 1.000000000000000000, 0.0000000000000000000 ) ) ;
#202 = ORGANIZATION ( 'UNSPECIFIED', 'UNSPECIFIED', '' ) ;
#203 = APPROVAL_PERSON_ORGANIZATION ( #205, #116, #48 ) ;
#204 = DIRECTION ( 'NONE',  ( 1.000000000000000000, 0.0000000000000000000, 0.0000000000000000000 ) ) ;
#205 = PERSON_AND_ORGANIZATION ( #197, #202 ) ;
#206 = EDGE_CURVE ( 'NONE', #147, #147, #87, .T. ) ;
#207 = COORDINATED_UNIVERSAL_TIME_OFFSET ( 1, 0, .AHEAD. ) ;
#208 = EDGE_LOOP ( 'NONE', ( #70 ) ) ;
#209 = EDGE_LOOP ( 'NONE', ( #107 ) ) ;
#210 = EDGE_CURVE ( 'NONE', #95, #95, #92, .T. ) ;
#211 = CONICAL_SURFACE ( 'NONE', #215, 2.500000000000002665, 0.7853981633974479459 ) ;
#212 = ORIENTED_EDGE ( 'NONE', *, *, #161, .T. ) ;
#213 = FACE_OUTER_BOUND ( 'NONE', #222, .T. ) ;
#214 = DIRECTION ( 'NONE',  ( -4.275831445896958607E-31, -1.000000000000000000, -1.224646799147353207E-16 ) ) ;
#215 = AXIS2_PLACEMENT_3D ( 'NONE', #90, #110, #114 ) ;
#216 = CARTESIAN_POINT ( 'NONE',  ( 3.840629472727446060E-14, -1.369495752285025191E-15, 10.99999999999999822 ) ) ;
#217 =( LENGTH_UNIT ( ) NAMED_UNIT ( * ) SI_UNIT ( .MILLI., .METRE. ) );
#218 = DIRECTION ( 'NONE',  ( 3.491481338843133355E-15, -1.244996138440932305E-16, 1.000000000000000000 ) ) ;
#219 = APPROVAL_ROLE ( '' ) ;
#220 = CC_DESIGN_PERSON_AND_ORGANIZATION_ASSIGNMENT ( #96, #26, ( #109 ) ) ;
#221 = AXIS2_PLACEMENT_3D ( 'NONE', #59, #58, #201 ) ;
#222 = EDGE_LOOP ( 'NONE', ( #18 ) ) ;
#223 = LOCAL_TIME ( 15, 47, 2.000000000000000000, #207 ) ;
ENDSEC;
END-ISO-10303-21;
