ISO-10303-21;
HEADER;
FILE_DESCRIPTION (( 'STEP AP203' ),
    '1' );
FILE_NAME ('57239.step',
    '2021-11-15T14:47:01',
    ( '' ),
    ( '' ),
    'SwSTEP 2.0',
    'SolidWorks 2019',
    '' );
FILE_SCHEMA (( 'CONFIG_CONTROL_DESIGN' ));
ENDSEC;

DATA;
#1 = APPROVAL ( #43, 'UNSPECIFIED' ) ;
#2 = LOCAL_TIME ( 15, 47, 1.000000000000000000, #205 ) ;
#3 = CARTESIAN_POINT ( 'NONE',  ( -8.693761568596553469E-31, 3.100030769465665930E-32, -2.489992276881864611E-16 ) ) ;
#4 = EDGE_LOOP ( 'NONE', ( #42 ) ) ;
#5 = DIRECTION ( 'NONE',  ( -3.491481338843133355E-15, 1.224646799147353207E-16, -1.000000000000000000 ) ) ;
#6 = UNCERTAINTY_MEASURE_WITH_UNIT (LENGTH_MEASURE( 1.000000000000000082E-05 ), #106, 'distance_accuracy_value', 'NONE');
#7 = EDGE_LOOP ( 'NONE', ( #20 ) ) ;
#8 = AXIS2_PLACEMENT_3D ( 'NONE', #200, #178, #32 ) ;
#9 = SECURITY_CLASSIFICATION ( '', '', #80 ) ;
#10 = FACE_OUTER_BOUND ( 'NONE', #60, .T. ) ;
#11 = CARTESIAN_POINT ( 'NONE',  ( -3.206816838010677856E-31, 1.124799933034399755E-32, -9.184688465421452921E-17 ) ) ;
#12 = CYLINDRICAL_SURFACE ( 'NONE', #211, 2.000000000000000000 ) ;
#13 = APPROVAL_PERSON_ORGANIZATION ( #78, #133, #220 ) ;
#14 = ADVANCED_FACE ( 'NONE', ( #91, #144 ), #23, .F. ) ;
#15 = DATE_AND_TIME ( #129, #222 ) ;
#16 = LOCAL_TIME ( 15, 47, 1.000000000000000000, #216 ) ;
#17 = COORDINATED_UNIVERSAL_TIME_OFFSET ( 1, 0, .AHEAD. ) ;
#18 = AXIS2_PLACEMENT_3D ( 'NONE', #176, #175, #142 ) ;
#19 = APPROVAL ( #186, 'UNSPECIFIED' ) ;
#20 = ORIENTED_EDGE ( 'NONE', *, *, #203, .F. ) ;
#21 = CARTESIAN_POINT ( 'NONE',  ( 3.840629472727446691E-14, 2.249639673992782306E-32, 11.00000000000000000 ) ) ;
#22 = CARTESIAN_POINT ( 'NONE',  ( -1.738752313719311044E-30, -2.000000000000000000, -4.979984553763729221E-16 ) ) ;
#23 = TOROIDAL_SURFACE ( 'NONE', #182, 10.00000000000000000, 8.000000000000000000 ) ;
#24 = MECHANICAL_CONTEXT ( 'NONE', #31, 'mechanical' ) ;
#25 = APPLICATION_CONTEXT ( 'configuration controlled 3d designs of mechanical parts and assemblies' ) ;
#26 = DIRECTION ( 'NONE',  ( 3.491481338843133355E-15, -1.244996138440932305E-16, 1.000000000000000000 ) ) ;
#27 = CARTESIAN_POINT ( 'NONE',  ( 3.840629472727446691E-14, 2.249639673992782306E-32, 11.00000000000000000 ) ) ;
#28 = COORDINATED_UNIVERSAL_TIME_OFFSET ( 1, 0, .AHEAD. ) ;
#29 = DIRECTION ( 'NONE',  ( 0.0000000000000000000, 1.000000000000000000, 0.0000000000000000000 ) ) ;
#30 = DIRECTION ( 'NONE',  ( 0.0000000000000000000, 1.000000000000000000, 0.0000000000000000000 ) ) ;
#31 = APPLICATION_CONTEXT ( 'configuration controlled 3d designs of mechanical parts and assemblies' ) ;
#32 = DIRECTION ( 'NONE',  ( 0.0000000000000000000, 1.000000000000000000, 0.0000000000000000000 ) ) ;
#33 = CIRCLE ( 'NONE', #152, 1.999999999999999556 ) ;
#34 = PRODUCT_DEFINITION ( 'UNKNOWN', '', #131, #192 ) ;
#35 = CIRCLE ( 'NONE', #163, 2.000000000000000000 ) ;
#36 = APPLICATION_PROTOCOL_DEFINITION ( 'international standard', 'config_control_design', 1994, #31 ) ;
#37 = APPROVAL_ROLE ( '' ) ;
#38 = EDGE_LOOP ( 'NONE', ( #180 ) ) ;
#39 = CIRCLE ( 'NONE', #171, 1.999999999999999556 ) ;
#40 = CC_DESIGN_SECURITY_CLASSIFICATION ( #9, ( #131 ) ) ;
#41 = DIRECTION ( 'NONE',  ( -4.346880784298278486E-31, -1.000000000000000000, -1.244996138440932305E-16 ) ) ;
#42 = ORIENTED_EDGE ( 'NONE', *, *, #59, .F. ) ;
#43 = APPROVAL_STATUS ( 'not_yet_approved' ) ;
#44 = EDGE_LOOP ( 'NONE', ( #122 ) ) ;
#45 = AXIS2_PLACEMENT_3D ( 'NONE', #89, #105, #174 ) ;
#46 = FACE_OUTER_BOUND ( 'NONE', #7, .T. ) ;
#47 = EDGE_LOOP ( 'NONE', ( #76 ) ) ;
#48 = DIRECTION ( 'NONE',  ( -4.405892549638853520E-31, -1.000000000000000000, -1.244996138440932305E-16 ) ) ;
#49 = SHAPE_DEFINITION_REPRESENTATION ( #183, #71 ) ;
#50 = ADVANCED_FACE ( 'NONE', ( #218, #110 ), #12, .T. ) ;
#51 = ORIENTED_EDGE ( 'NONE', *, *, #203, .T. ) ;
#52 = EDGE_LOOP ( 'NONE', ( #214 ) ) ;
#53 = CALENDAR_DATE ( 2021, 15, 11 ) ;
#54 = DATE_TIME_ROLE ( 'creation_date' ) ;
#55 = VERTEX_POINT ( 'NONE', #57 ) ;
#56 = DIRECTION ( 'NONE',  ( 0.0000000000000000000, -1.000000000000000000, 0.0000000000000000000 ) ) ;
#57 = CARTESIAN_POINT ( 'NONE',  ( 1.972686956446370535E-13, 2.999999999999995559, 56.50000000000000000 ) ) ;
#58 = ORIENTED_EDGE ( 'NONE', *, *, #86, .F. ) ;
#59 = EDGE_CURVE ( 'NONE', #212, #212, #112, .T. ) ;
#60 = EDGE_LOOP ( 'NONE', ( #58 ) ) ;
#61 = PERSON_AND_ORGANIZATION_ROLE ( 'design_supplier' ) ;
#62 = DIRECTION ( 'NONE',  ( 0.0000000000000000000, 1.000000000000000000, 0.0000000000000000000 ) ) ;
#63 = EDGE_LOOP ( 'NONE', ( #104 ) ) ;
#64 = AXIS2_PLACEMENT_3D ( 'NONE', #21, #207, #70 ) ;
#65 = PERSON_AND_ORGANIZATION_ROLE ( 'creator' ) ;
#66 = ADVANCED_FACE ( 'NONE', ( #73, #190 ), #107, .T. ) ;
#67 = PERSON ( 'UNSPECIFIED', 'UNSPECIFIED', 'UNSPECIFIED', ('UNSPECIFIED'), ('UNSPECIFIED'), ('UNSPECIFIED') ) ;
#68 = APPROVAL_DATE_TIME ( #223, #1 ) ;
#69 = PERSON_AND_ORGANIZATION ( #67, #115 ) ;
#70 = DIRECTION ( 'NONE',  ( -4.275831445896958607E-31, -1.000000000000000000, -1.224646799147353207E-16 ) ) ;
#71 = ADVANCED_BREP_SHAPE_REPRESENTATION ( '57239', ( #87, #164, #45 ), #184 ) ;
#72 = PLANE ( 'NONE',  #64 ) ;
#73 = FACE_OUTER_BOUND ( 'NONE', #204, .T. ) ;
#74 = VERTEX_POINT ( 'NONE', #118 ) ;
#75 = CONICAL_SURFACE ( 'NONE', #202, 2.500000000000002665, 0.7853981633974479459 ) ;
#76 = ORIENTED_EDGE ( 'NONE', *, *, #210, .F. ) ;
#77 = CC_DESIGN_PERSON_AND_ORGANIZATION_ASSIGNMENT ( #69, #92, ( #137 ) ) ;
#78 = PERSON_AND_ORGANIZATION ( #67, #115 ) ;
#79 = PLANE ( 'NONE',  #188 ) ;
#80 = SECURITY_CLASSIFICATION_LEVEL ( 'unclassified' ) ;
#81 = DIRECTION ( 'NONE',  ( 0.0000000000000000000, -1.000000000000000000, 0.0000000000000000000 ) ) ;
#82 = LOCAL_TIME ( 15, 47, 1.000000000000000000, #28 ) ;
#83 = PLANE ( 'NONE',  #128 ) ;
#84 = APPROVAL_PERSON_ORGANIZATION ( #161, #1, #185 ) ;
#85 = PERSON_AND_ORGANIZATION_ROLE ( 'classification_officer' ) ;
#86 = EDGE_CURVE ( 'NONE', #120, #120, #39, .T. ) ;
#87 = MANIFOLD_SOLID_BREP ( 'Corps-Déplacer/Copier1[1]', #88 ) ;
#88 = CLOSED_SHELL ( 'NONE', ( #66, #93, #208, #14, #113 ) ) ;
#89 = CARTESIAN_POINT ( 'NONE',  ( 0.0000000000000000000, 0.0000000000000000000, 0.0000000000000000000 ) ) ;
#90 = APPLICATION_PROTOCOL_DEFINITION ( 'international standard', 'config_control_design', 1994, #25 ) ;
#91 = FACE_OUTER_BOUND ( 'NONE', #44, .T. ) ;
#92 = PERSON_AND_ORGANIZATION_ROLE ( 'design_owner' ) ;
#93 = ADVANCED_FACE ( 'NONE', ( #46, #98 ), #75, .T. ) ;
#94 = FACE_OUTER_BOUND ( 'NONE', #47, .T. ) ;
#95 = CALENDAR_DATE ( 2021, 15, 11 ) ;
#96 = PLANE ( 'NONE',  #198 ) ;
#97 = DIRECTION ( 'NONE',  ( 3.491481338843133355E-15, -1.244996138440932305E-16, 1.000000000000000000 ) ) ;
#98 = FACE_BOUND ( 'NONE', #52, .T. ) ;
#99 = AXIS2_PLACEMENT_3D ( 'NONE', #162, #201, #30 ) ;
#100 = DATE_AND_TIME ( #146, #16 ) ;
#101 = CC_DESIGN_APPROVAL ( #1, ( #34 ) ) ;
#102 = CIRCLE ( 'NONE', #99, 3.000000000000000000 ) ;
#103 = PERSON_AND_ORGANIZATION ( #67, #115 ) ;
#104 = ORIENTED_EDGE ( 'NONE', *, *, #210, .T. ) ;
#105 = DIRECTION ( 'NONE',  ( 0.0000000000000000000, 0.0000000000000000000, 1.000000000000000000 ) ) ;
#106 =( LENGTH_UNIT ( ) NAMED_UNIT ( * ) SI_UNIT ( .MILLI., .METRE. ) );
#107 = CYLINDRICAL_SURFACE ( 'NONE', #18, 3.000000000000000000 ) ;
#108 = DIRECTION ( 'NONE',  ( -4.346880784298277610E-31, -1.000000000000000000, -1.244996138440932305E-16 ) ) ;
#109 = DIRECTION ( 'NONE',  ( -4.275831445896958607E-31, -1.000000000000000000, -1.224646799147353207E-16 ) ) ;
#110 = FACE_OUTER_BOUND ( 'NONE', #196, .T. ) ;
#111 = DIRECTION ( 'NONE',  ( 3.491481338843133355E-15, -1.244996138440932305E-16, 1.000000000000000000 ) ) ;
#112 = CIRCLE ( 'NONE', #134, 2.500000000000002665 ) ;
#113 = ADVANCED_FACE ( 'NONE', ( #10 ), #96, .F. ) ;
#114 = PRODUCT_RELATED_PRODUCT_CATEGORY ( 'detail', '', ( #137 ) ) ;
#115 = ORGANIZATION ( 'UNSPECIFIED', 'UNSPECIFIED', '' ) ;
#116 = PERSON_AND_ORGANIZATION ( #67, #115 ) ;
#117 = CLOSED_SHELL ( 'NONE', ( #219, #50, #150 ) ) ;
#118 = CARTESIAN_POINT ( 'NONE',  ( 5.192874380620788558E-14, 2.999999999999997780, 14.87298334620741258 ) ) ;
#119 = ORIENTED_EDGE ( 'NONE', *, *, #157, .F. ) ;
#120 = VERTEX_POINT ( 'NONE', #173 ) ;
#121 = CARTESIAN_POINT ( 'NONE',  ( 3.840629472727446060E-14, -1.734723475976807094E-15, 10.99999999999999822 ) ) ;
#122 = ORIENTED_EDGE ( 'NONE', *, *, #86, .T. ) ;
#123 = PERSON_AND_ORGANIZATION ( #67, #115 ) ;
#124 = DIRECTION ( 'NONE',  ( -3.491481338843133355E-15, 1.224646799147353207E-16, -1.000000000000000000 ) ) ;
#125 = PERSON_AND_ORGANIZATION ( #67, #115 ) ;
#126 = DIRECTION ( 'NONE',  ( 3.491481338843133355E-15, -1.244996138440932305E-16, 1.000000000000000000 ) ) ;
#127 = DIRECTION ( 'NONE',  ( -4.275831445896958607E-31, -1.000000000000000000, -1.224646799147353207E-16 ) ) ;
#128 = AXIS2_PLACEMENT_3D ( 'NONE', #155, #5, #191 ) ;
#129 = CALENDAR_DATE ( 2021, 15, 11 ) ;
#130 = FACE_OUTER_BOUND ( 'NONE', #4, .T. ) ;
#131 = PRODUCT_DEFINITION_FORMATION_WITH_SPECIFIED_SOURCE ( 'ANY', '', #137, .NOT_KNOWN. ) ;
#132 = APPROVAL_DATE_TIME ( #15, #133 ) ;
#133 = APPROVAL ( #215, 'UNSPECIFIED' ) ;
#134 = AXIS2_PLACEMENT_3D ( 'NONE', #168, #124, #62 ) ;
#135 = CC_DESIGN_APPROVAL ( #133, ( #9 ) ) ;
#136 = ORIENTED_EDGE ( 'NONE', *, *, #154, .T. ) ;
#137 = PRODUCT ( '57239', '57239', '', ( #24 ) ) ;
#138 = PERSON_AND_ORGANIZATION_ROLE ( 'creator' ) ;
#139 = DATE_AND_TIME ( #53, #2 ) ;
#140 = EDGE_LOOP ( 'NONE', ( #136 ) ) ;
#141 =( NAMED_UNIT ( * ) SI_UNIT ( $, .STERADIAN. ) SOLID_ANGLE_UNIT ( ) );
#142 = DIRECTION ( 'NONE',  ( 4.275831445896959482E-31, 1.000000000000000000, 1.224646799147353207E-16 ) ) ;
#143 = CARTESIAN_POINT ( 'NONE',  ( 1.990144363140586139E-13, 2.499999999999995559, 57.00000000000000000 ) ) ;
#144 = FACE_OUTER_BOUND ( 'NONE', #140, .T. ) ;
#145 = DIRECTION ( 'NONE',  ( 3.491481338843133355E-15, -1.224646799147353207E-16, 1.000000000000000000 ) ) ;
#146 = CALENDAR_DATE ( 2021, 15, 11 ) ;
#147 = EDGE_LOOP ( 'NONE', ( #166 ) ) ;
#148 = CIRCLE ( 'NONE', #8, 3.000000000000002665 ) ;
#149 = DIRECTION ( 'NONE',  ( 3.491481338843133355E-15, -1.224646799147353207E-16, 1.000000000000000000 ) ) ;
#150 = ADVANCED_FACE ( 'NONE', ( #94 ), #79, .F. ) ;
#151 = CC_DESIGN_PERSON_AND_ORGANIZATION_ASSIGNMENT ( #125, #85, ( #9 ) ) ;
#152 = AXIS2_PLACEMENT_3D ( 'NONE', #177, #111, #81 ) ;
#153 = COORDINATED_UNIVERSAL_TIME_OFFSET ( 1, 0, .AHEAD. ) ;
#154 = EDGE_CURVE ( 'NONE', #74, #74, #102, .T. ) ;
#155 = CARTESIAN_POINT ( 'NONE',  ( 1.990144363140586139E-13, 1.874699728327313799E-32, 57.00000000000000000 ) ) ;
#156 =( NAMED_UNIT ( * ) PLANE_ANGLE_UNIT ( ) SI_UNIT ( $, .RADIAN. ) );
#157 = EDGE_CURVE ( 'NONE', #206, #206, #33, .T. ) ;
#158 = CARTESIAN_POINT ( 'NONE',  ( 3.840629472727446060E-14, -2.000000000000000888, 10.99999999999999822 ) ) ;
#159 = LOCAL_TIME ( 15, 47, 1.000000000000000000, #153 ) ;
#160 = DIRECTION ( 'NONE',  ( 3.491481338843133355E-15, -1.244996138440932305E-16, 1.000000000000000000 ) ) ;
#161 = PERSON_AND_ORGANIZATION ( #67, #115 ) ;
#162 = CARTESIAN_POINT ( 'NONE',  ( 5.192874380620788558E-14, -2.216908407004234701E-15, 14.87298334620741258 ) ) ;
#163 = AXIS2_PLACEMENT_3D ( 'NONE', #3, #26, #41 ) ;
#164 = MANIFOLD_SOLID_BREP ( 'Corps-Déplacer/Copier1[2]', #117 ) ;
#165 = APPROVAL_PERSON_ORGANIZATION ( #116, #19, #37 ) ;
#166 = ORIENTED_EDGE ( 'NONE', *, *, #154, .F. ) ;
#167 = CARTESIAN_POINT ( 'NONE',  ( 0.0000000000000000000, 0.0000000000000000000, 0.0000000000000000000 ) ) ;
#168 = CARTESIAN_POINT ( 'NONE',  ( 1.990144363140586139E-13, -6.980486755139912911E-15, 57.00000000000000000 ) ) ;
#169 = DATE_TIME_ROLE ( 'classification_date' ) ;
#170 = APPROVAL_DATE_TIME ( #100, #19 ) ;
#171 = AXIS2_PLACEMENT_3D ( 'NONE', #209, #126, #56 ) ;
#172 = CC_DESIGN_PERSON_AND_ORGANIZATION_ASSIGNMENT ( #103, #138, ( #34 ) ) ;
#173 = CARTESIAN_POINT ( 'NONE',  ( 3.840629472727446060E-14, -2.000000000000000888, 10.99999999999999822 ) ) ;
#174 = DIRECTION ( 'NONE',  ( 1.000000000000000000, 0.0000000000000000000, 0.0000000000000000000 ) ) ;
#175 = DIRECTION ( 'NONE',  ( -3.491481338843133355E-15, 1.224646799147353207E-16, -1.000000000000000000 ) ) ;
#176 = CARTESIAN_POINT ( 'NONE',  ( 0.0000000000000000000, 0.0000000000000000000, 0.0000000000000000000 ) ) ;
#177 = CARTESIAN_POINT ( 'NONE',  ( 3.840629472727446060E-14, -1.369495752285025191E-15, 10.99999999999999822 ) ) ;
#178 = DIRECTION ( 'NONE',  ( -3.491481338843133355E-15, 1.224646799147353207E-16, -1.000000000000000000 ) ) ;
#179 = CC_DESIGN_PERSON_AND_ORGANIZATION_ASSIGNMENT ( #123, #61, ( #131 ) ) ;
#180 = ORIENTED_EDGE ( 'NONE', *, *, #157, .T. ) ;
#181 = PERSON_AND_ORGANIZATION ( #67, #115 ) ;
#182 = AXIS2_PLACEMENT_3D ( 'NONE', #121, #97, #48 ) ;
#183 = PRODUCT_DEFINITION_SHAPE ( 'NONE', 'NONE',  #34 ) ;
#184 =( GEOMETRIC_REPRESENTATION_CONTEXT ( 3 ) GLOBAL_UNCERTAINTY_ASSIGNED_CONTEXT ( ( #6 ) ) GLOBAL_UNIT_ASSIGNED_CONTEXT ( ( #106, #156, #141 ) ) REPRESENTATION_CONTEXT ( 'NONE', 'WORKASPACE' ) );
#185 = APPROVAL_ROLE ( '' ) ;
#186 = APPROVAL_STATUS ( 'not_yet_approved' ) ;
#187 = VERTEX_POINT ( 'NONE', #22 ) ;
#188 = AXIS2_PLACEMENT_3D ( 'NONE', #11, #145, #109 ) ;
#189 = FACE_OUTER_BOUND ( 'NONE', #38, .T. ) ;
#190 = FACE_OUTER_BOUND ( 'NONE', #147, .T. ) ;
#191 = DIRECTION ( 'NONE',  ( 4.275831445896958607E-31, 1.000000000000000000, 1.224646799147353207E-16 ) ) ;
#192 = DESIGN_CONTEXT ( 'detailed design', #25, 'design' ) ;
#193 = CC_DESIGN_DATE_AND_TIME_ASSIGNMENT ( #197, #169, ( #9 ) ) ;
#194 = CARTESIAN_POINT ( 'NONE',  ( 1.990144363140586139E-13, -6.980486755139912911E-15, 57.00000000000000000 ) ) ;
#195 = CALENDAR_DATE ( 2021, 15, 11 ) ;
#196 = EDGE_LOOP ( 'NONE', ( #119 ) ) ;
#197 = DATE_AND_TIME ( #195, #159 ) ;
#198 = AXIS2_PLACEMENT_3D ( 'NONE', #27, #149, #127 ) ;
#199 = CC_DESIGN_PERSON_AND_ORGANIZATION_ASSIGNMENT ( #181, #65, ( #131 ) ) ;
#200 = CARTESIAN_POINT ( 'NONE',  ( 1.972686956446370535E-13, -6.919254415182545337E-15, 56.50000000000000000 ) ) ;
#201 = DIRECTION ( 'NONE',  ( -3.491481338843133355E-15, 1.244996138440932305E-16, -1.000000000000000000 ) ) ;
#202 = AXIS2_PLACEMENT_3D ( 'NONE', #194, #217, #29 ) ;
#203 = EDGE_CURVE ( 'NONE', #55, #55, #148, .T. ) ;
#204 = EDGE_LOOP ( 'NONE', ( #51 ) ) ;
#205 = COORDINATED_UNIVERSAL_TIME_OFFSET ( 1, 0, .AHEAD. ) ;
#206 = VERTEX_POINT ( 'NONE', #158 ) ;
#207 = DIRECTION ( 'NONE',  ( 3.491481338843133355E-15, -1.224646799147353207E-16, 1.000000000000000000 ) ) ;
#208 = ADVANCED_FACE ( 'NONE', ( #130 ), #83, .F. ) ;
#209 = CARTESIAN_POINT ( 'NONE',  ( 3.840629472727446060E-14, -1.369495752285025191E-15, 10.99999999999999822 ) ) ;
#210 = EDGE_CURVE ( 'NONE', #187, #187, #35, .T. ) ;
#211 = AXIS2_PLACEMENT_3D ( 'NONE', #167, #160, #108 ) ;
#212 = VERTEX_POINT ( 'NONE', #143 ) ;
#213 = CC_DESIGN_APPROVAL ( #19, ( #131 ) ) ;
#214 = ORIENTED_EDGE ( 'NONE', *, *, #59, .T. ) ;
#215 = APPROVAL_STATUS ( 'not_yet_approved' ) ;
#216 = COORDINATED_UNIVERSAL_TIME_OFFSET ( 1, 0, .AHEAD. ) ;
#217 = DIRECTION ( 'NONE',  ( -3.491481338843133355E-15, 1.224646799147353207E-16, -1.000000000000000000 ) ) ;
#218 = FACE_OUTER_BOUND ( 'NONE', #63, .T. ) ;
#219 = ADVANCED_FACE ( 'NONE', ( #189 ), #72, .T. ) ;
#220 = APPROVAL_ROLE ( '' ) ;
#221 = CC_DESIGN_DATE_AND_TIME_ASSIGNMENT ( #139, #54, ( #34 ) ) ;
#222 = LOCAL_TIME ( 15, 47, 1.000000000000000000, #17 ) ;
#223 = DATE_AND_TIME ( #95, #82 ) ;
ENDSEC;
END-ISO-10303-21;
