ISO-10303-21;
HEADER;
FILE_DESCRIPTION (( 'STEP AP203' ),
    '1' );
FILE_NAME ('57233.step',
    '2021-11-15T14:47:01',
    ( '' ),
    ( '' ),
    'SwSTEP 2.0',
    'SolidWorks 2019',
    '' );
FILE_SCHEMA (( 'CONFIG_CONTROL_DESIGN' ));
ENDSEC;

DATA;
#1 = DIRECTION ( 'NONE',  ( -3.491481338843133355E-15, 1.224646799147353207E-16, -1.000000000000000000 ) ) ;
#2 = CIRCLE ( 'NONE', #147, 1.500000000000000000 ) ;
#3 = FACE_OUTER_BOUND ( 'NONE', #218, .T. ) ;
#4 = PERSON_AND_ORGANIZATION ( #211, #78 ) ;
#5 = AXIS2_PLACEMENT_3D ( 'NONE', #133, #216, #102 ) ;
#6 = PERSON_AND_ORGANIZATION ( #211, #78 ) ;
#7 = CALENDAR_DATE ( 2021, 15, 11 ) ;
#8 = PERSON_AND_ORGANIZATION ( #211, #78 ) ;
#9 = AXIS2_PLACEMENT_3D ( 'NONE', #187, #29, #100 ) ;
#10 = ORIENTED_EDGE ( 'NONE', *, *, #21, .F. ) ;
#11 = CARTESIAN_POINT ( 'NONE',  ( 2.793185071074506053E-14, -9.959969107527456471E-16, 7.999999999999998224 ) ) ;
#12 = APPROVAL_PERSON_ORGANIZATION ( #68, #96, #195 ) ;
#13 = CARTESIAN_POINT ( 'NONE',  ( 2.793185071074506053E-14, -1.500000000000000000, 7.999999999999998224 ) ) ;
#14 = DIRECTION ( 'NONE',  ( -3.491481338843133355E-15, 1.224646799147353207E-16, -1.000000000000000000 ) ) ;
#15 = CC_DESIGN_APPROVAL ( #115, ( #158 ) ) ;
#16 = CARTESIAN_POINT ( 'NONE',  ( 2.793185071074506684E-14, 2.249639673992782580E-32, 8.000000000000000000 ) ) ;
#17 = CYLINDRICAL_SURFACE ( 'NONE', #69, 1.499999999999999556 ) ;
#18 = FACE_OUTER_BOUND ( 'NONE', #27, .T. ) ;
#19 = CIRCLE ( 'NONE', #186, 1.499999999999998890 ) ;
#20 = APPROVAL_ROLE ( '' ) ;
#21 = EDGE_CURVE ( 'NONE', #167, #167, #98, .T. ) ;
#22 = APPROVAL_STATUS ( 'not_yet_approved' ) ;
#23 = PERSON_AND_ORGANIZATION ( #211, #78 ) ;
#24 =( NAMED_UNIT ( * ) PLANE_ANGLE_UNIT ( ) SI_UNIT ( $, .RADIAN. ) );
#25 = AXIS2_PLACEMENT_3D ( 'NONE', #123, #106, #90 ) ;
#26 = EDGE_LOOP ( 'NONE', ( #41 ) ) ;
#27 = EDGE_LOOP ( 'NONE', ( #95 ) ) ;
#28 = EDGE_LOOP ( 'NONE', ( #75 ) ) ;
#29 = DIRECTION ( 'NONE',  ( -3.491481338843133355E-15, 1.244996138440932305E-16, -1.000000000000000000 ) ) ;
#30 = CARTESIAN_POINT ( 'NONE',  ( -1.304064235289483108E-30, -1.500000000000000000, -3.734988415322796916E-16 ) ) ;
#31 = CARTESIAN_POINT ( 'NONE',  ( 2.793185071074506053E-14, -9.959969107527456471E-16, 7.999999999999998224 ) ) ;
#32 = CC_DESIGN_PERSON_AND_ORGANIZATION_ASSIGNMENT ( #162, #40, ( #158 ) ) ;
#33 = DIRECTION ( 'NONE',  ( 3.491481338843133355E-15, -1.224646799147353207E-16, 1.000000000000000000 ) ) ;
#34 = CARTESIAN_POINT ( 'NONE',  ( 0.0000000000000000000, 0.0000000000000000000, 0.0000000000000000000 ) ) ;
#35 = APPROVAL_DATE_TIME ( #145, #164 ) ;
#36 = LOCAL_TIME ( 15, 47, 1.000000000000000000, #108 ) ;
#37 = CALENDAR_DATE ( 2021, 15, 11 ) ;
#38 = COORDINATED_UNIVERSAL_TIME_OFFSET ( 1, 0, .AHEAD. ) ;
#39 = DATE_AND_TIME ( #209, #114 ) ;
#40 = PERSON_AND_ORGANIZATION_ROLE ( 'design_supplier' ) ;
#41 = ORIENTED_EDGE ( 'NONE', *, *, #178, .F. ) ;
#42 = AXIS2_PLACEMENT_3D ( 'NONE', #79, #172, #80 ) ;
#43 = FACE_OUTER_BOUND ( 'NONE', #28, .T. ) ;
#44 = CARTESIAN_POINT ( 'NONE',  ( 2.793185071074506053E-14, -1.500000000000000000, 7.999999999999998224 ) ) ;
#45 = PLANE ( 'NONE',  #125 ) ;
#46 = ADVANCED_FACE ( 'NONE', ( #55 ), #148, .F. ) ;
#47 = CARTESIAN_POINT ( 'NONE',  ( 1.990144363140586139E-13, -6.980486755139912911E-15, 57.00000000000000000 ) ) ;
#48 = FACE_OUTER_BOUND ( 'NONE', #219, .T. ) ;
#49 = CLOSED_SHELL ( 'NONE', ( #208, #77, #46 ) ) ;
#50 = DATE_TIME_ROLE ( 'classification_date' ) ;
#51 = APPROVAL_DATE_TIME ( #39, #115 ) ;
#52 = PRODUCT_RELATED_PRODUCT_CATEGORY ( 'detail', '', ( #88 ) ) ;
#53 = AXIS2_PLACEMENT_3D ( 'NONE', #59, #14, #168 ) ;
#54 = CC_DESIGN_APPROVAL ( #164, ( #131 ) ) ;
#55 = FACE_OUTER_BOUND ( 'NONE', #26, .T. ) ;
#56 = ADVANCED_FACE ( 'NONE', ( #121, #191 ), #180, .F. ) ;
#57 = ORIENTED_EDGE ( 'NONE', *, *, #109, .T. ) ;
#58 = VERTEX_POINT ( 'NONE', #44 ) ;
#59 = CARTESIAN_POINT ( 'NONE',  ( 1.990144363140586139E-13, -6.980486755139912911E-15, 57.00000000000000000 ) ) ;
#60 = DIRECTION ( 'NONE',  ( 3.491481338843133355E-15, -1.244996138440932305E-16, 1.000000000000000000 ) ) ;
#61 = PLANE ( 'NONE',  #87 ) ;
#62 = CC_DESIGN_SECURITY_CLASSIFICATION ( #214, ( #158 ) ) ;
#63 = PLANE ( 'NONE',  #183 ) ;
#64 = CARTESIAN_POINT ( 'NONE',  ( 4.421503566283302108E-14, 2.999999999999997335, 12.66368952654440427 ) ) ;
#65 = APPROVAL_STATUS ( 'not_yet_approved' ) ;
#66 = COORDINATED_UNIVERSAL_TIME_OFFSET ( 1, 0, .AHEAD. ) ;
#67 = CC_DESIGN_PERSON_AND_ORGANIZATION_ASSIGNMENT ( #23, #89, ( #158 ) ) ;
#68 = PERSON_AND_ORGANIZATION ( #211, #78 ) ;
#69 = AXIS2_PLACEMENT_3D ( 'NONE', #34, #60, #157 ) ;
#70 = SHAPE_DEFINITION_REPRESENTATION ( #181, #184 ) ;
#71 = DIRECTION ( 'NONE',  ( 0.0000000000000000000, -1.000000000000000000, 0.0000000000000000000 ) ) ;
#72 = APPROVAL_DATE_TIME ( #94, #96 ) ;
#73 = ORIENTED_EDGE ( 'NONE', *, *, #105, .T. ) ;
#74 = CC_DESIGN_PERSON_AND_ORGANIZATION_ASSIGNMENT ( #6, #142, ( #131 ) ) ;
#75 = ORIENTED_EDGE ( 'NONE', *, *, #212, .F. ) ;
#76 = VERTEX_POINT ( 'NONE', #151 ) ;
#77 = ADVANCED_FACE ( 'NONE', ( #18, #81 ), #17, .T. ) ;
#78 = ORGANIZATION ( 'UNSPECIFIED', 'UNSPECIFIED', '' ) ;
#79 = CARTESIAN_POINT ( 'NONE',  ( 0.0000000000000000000, 0.0000000000000000000, 0.0000000000000000000 ) ) ;
#80 = DIRECTION ( 'NONE',  ( 4.275831445896959482E-31, 1.000000000000000000, 1.224646799147353207E-16 ) ) ;
#81 = FACE_OUTER_BOUND ( 'NONE', #215, .T. ) ;
#82 = DESIGN_CONTEXT ( 'detailed design', #199, 'design' ) ;
#83 = CARTESIAN_POINT ( 'NONE',  ( 1.990144363140586139E-13, 1.874699728327313799E-32, 57.00000000000000000 ) ) ;
#84 =( GEOMETRIC_REPRESENTATION_CONTEXT ( 3 ) GLOBAL_UNCERTAINTY_ASSIGNED_CONTEXT ( ( #140 ) ) GLOBAL_UNIT_ASSIGNED_CONTEXT ( ( #112, #24, #141 ) ) REPRESENTATION_CONTEXT ( 'NONE', 'WORKASPACE' ) );
#85 = COORDINATED_UNIVERSAL_TIME_OFFSET ( 1, 0, .AHEAD. ) ;
#86 = ADVANCED_FACE ( 'NONE', ( #48, #43 ), #101, .T. ) ;
#87 = AXIS2_PLACEMENT_3D ( 'NONE', #16, #33, #136 ) ;
#88 = PRODUCT ( '57233', '57233', '', ( #197 ) ) ;
#89 = PERSON_AND_ORGANIZATION_ROLE ( 'creator' ) ;
#90 = DIRECTION ( 'NONE',  ( 1.000000000000000000, 0.0000000000000000000, 0.0000000000000000000 ) ) ;
#91 = EDGE_LOOP ( 'NONE', ( #200 ) ) ;
#92 = LOCAL_TIME ( 15, 47, 1.000000000000000000, #85 ) ;
#93 = EDGE_LOOP ( 'NONE', ( #10 ) ) ;
#94 = DATE_AND_TIME ( #150, #107 ) ;
#95 = ORIENTED_EDGE ( 'NONE', *, *, #178, .T. ) ;
#96 = APPROVAL ( #22, 'UNSPECIFIED' ) ;
#97 = ORIENTED_EDGE ( 'NONE', *, *, #105, .F. ) ;
#98 = CIRCLE ( 'NONE', #189, 1.499999999999998890 ) ;
#99 = ORIENTED_EDGE ( 'NONE', *, *, #156, .F. ) ;
#100 = DIRECTION ( 'NONE',  ( 0.0000000000000000000, 1.000000000000000000, 0.0000000000000000000 ) ) ;
#101 = CYLINDRICAL_SURFACE ( 'NONE', #42, 2.999999999999999556 ) ;
#102 = DIRECTION ( 'NONE',  ( -4.275831445896958607E-31, -1.000000000000000000, -1.224646799147353207E-16 ) ) ;
#103 = DIRECTION ( 'NONE',  ( 3.491481338843133355E-15, -1.244996138440932305E-16, 1.000000000000000000 ) ) ;
#104 = DIRECTION ( 'NONE',  ( -4.346880784298276734E-31, -1.000000000000000000, -1.244996138440932305E-16 ) ) ;
#105 = EDGE_CURVE ( 'NONE', #76, #76, #169, .T. ) ;
#106 = DIRECTION ( 'NONE',  ( 0.0000000000000000000, 0.0000000000000000000, 1.000000000000000000 ) ) ;
#107 = LOCAL_TIME ( 15, 47, 1.000000000000000000, #38 ) ;
#108 = COORDINATED_UNIVERSAL_TIME_OFFSET ( 1, 0, .AHEAD. ) ;
#109 = EDGE_CURVE ( 'NONE', #220, #220, #120, .T. ) ;
#110 = APPLICATION_PROTOCOL_DEFINITION ( 'international standard', 'config_control_design', 1994, #199 ) ;
#111 = CIRCLE ( 'NONE', #9, 2.999999999999999556 ) ;
#112 =( LENGTH_UNIT ( ) NAMED_UNIT ( * ) SI_UNIT ( .MILLI., .METRE. ) );
#113 = EDGE_LOOP ( 'NONE', ( #57 ) ) ;
#114 = LOCAL_TIME ( 15, 47, 1.000000000000000000, #213 ) ;
#115 = APPROVAL ( #198, 'UNSPECIFIED' ) ;
#116 = CC_DESIGN_APPROVAL ( #96, ( #214 ) ) ;
#117 = DIRECTION ( 'NONE',  ( 3.491481338843133355E-15, -1.224646799147353207E-16, 1.000000000000000000 ) ) ;
#118 = DIRECTION ( 'NONE',  ( 0.0000000000000000000, -1.000000000000000000, 0.0000000000000000000 ) ) ;
#119 = DIRECTION ( 'NONE',  ( 4.275831445896958607E-31, 1.000000000000000000, 1.224646799147353207E-16 ) ) ;
#120 = CIRCLE ( 'NONE', #53, 2.500000000000002665 ) ;
#121 = FACE_OUTER_BOUND ( 'NONE', #91, .T. ) ;
#122 = CARTESIAN_POINT ( 'NONE',  ( -6.520321176447415539E-31, 2.325023077099249721E-32, -1.867494207661398458E-16 ) ) ;
#123 = CARTESIAN_POINT ( 'NONE',  ( 0.0000000000000000000, 0.0000000000000000000, 0.0000000000000000000 ) ) ;
#124 = PERSON_AND_ORGANIZATION ( #211, #78 ) ;
#125 = AXIS2_PLACEMENT_3D ( 'NONE', #83, #222, #119 ) ;
#126 = APPROVAL_ROLE ( '' ) ;
#127 = PERSON_AND_ORGANIZATION ( #211, #78 ) ;
#128 = LOCAL_TIME ( 15, 47, 1.000000000000000000, #66 ) ;
#129 = CC_DESIGN_DATE_AND_TIME_ASSIGNMENT ( #175, #144, ( #131 ) ) ;
#130 = ORIENTED_EDGE ( 'NONE', *, *, #156, .T. ) ;
#131 = PRODUCT_DEFINITION ( 'UNKNOWN', '', #158, #82 ) ;
#132 = CONICAL_SURFACE ( 'NONE', #193, 2.500000000000002665, 0.7853981633974479459 ) ;
#133 = CARTESIAN_POINT ( 'NONE',  ( -3.206816838010677856E-31, 1.124799933034399755E-32, -9.184688465421452921E-17 ) ) ;
#134 = AXIS2_PLACEMENT_3D ( 'NONE', #205, #190, #153 ) ;
#135 = DIRECTION ( 'NONE',  ( -4.275831445896958607E-31, -1.000000000000000000, -1.224646799147353207E-16 ) ) ;
#136 = DIRECTION ( 'NONE',  ( -4.275831445896958607E-31, -1.000000000000000000, -1.224646799147353207E-16 ) ) ;
#137 = FACE_OUTER_BOUND ( 'NONE', #166, .T. ) ;
#138 = ADVANCED_FACE ( 'NONE', ( #207 ), #61, .F. ) ;
#139 = FACE_BOUND ( 'NONE', #113, .T. ) ;
#140 = UNCERTAINTY_MEASURE_WITH_UNIT (LENGTH_MEASURE( 1.000000000000000082E-05 ), #112, 'distance_accuracy_value', 'NONE');
#141 =( NAMED_UNIT ( * ) SI_UNIT ( $, .STERADIAN. ) SOLID_ANGLE_UNIT ( ) );
#142 = PERSON_AND_ORGANIZATION_ROLE ( 'creator' ) ;
#143 = CLOSED_SHELL ( 'NONE', ( #86, #202, #170, #56, #138 ) ) ;
#144 = DATE_TIME_ROLE ( 'creation_date' ) ;
#145 = DATE_AND_TIME ( #37, #92 ) ;
#146 = CC_DESIGN_DATE_AND_TIME_ASSIGNMENT ( #176, #50, ( #214 ) ) ;
#147 = AXIS2_PLACEMENT_3D ( 'NONE', #122, #206, #104 ) ;
#148 = PLANE ( 'NONE',  #5 ) ;
#149 = EDGE_LOOP ( 'NONE', ( #201 ) ) ;
#150 = CALENDAR_DATE ( 2021, 15, 11 ) ;
#151 = CARTESIAN_POINT ( 'NONE',  ( 1.972686956446370535E-13, 2.999999999999995559, 56.50000000000000000 ) ) ;
#152 = APPLICATION_CONTEXT ( 'configuration controlled 3d designs of mechanical parts and assemblies' ) ;
#153 = DIRECTION ( 'NONE',  ( -4.407578600077156464E-31, -1.000000000000000000, -1.244996138440932305E-16 ) ) ;
#154 = MANIFOLD_SOLID_BREP ( 'Corps-Déplacer/Copier1[1]', #143 ) ;
#155 = FACE_OUTER_BOUND ( 'NONE', #149, .T. ) ;
#156 = EDGE_CURVE ( 'NONE', #58, #58, #19, .T. ) ;
#157 = DIRECTION ( 'NONE',  ( -4.346880784298277610E-31, -1.000000000000000000, -1.244996138440932305E-16 ) ) ;
#158 = PRODUCT_DEFINITION_FORMATION_WITH_SPECIFIED_SOURCE ( 'ANY', '', #88, .NOT_KNOWN. ) ;
#159 = DIRECTION ( 'NONE',  ( 0.0000000000000000000, 1.000000000000000000, 0.0000000000000000000 ) ) ;
#160 = SECURITY_CLASSIFICATION_LEVEL ( 'unclassified' ) ;
#161 = AXIS2_PLACEMENT_3D ( 'NONE', #221, #1, #171 ) ;
#162 = PERSON_AND_ORGANIZATION ( #211, #78 ) ;
#163 = APPLICATION_PROTOCOL_DEFINITION ( 'international standard', 'config_control_design', 1994, #152 ) ;
#164 = APPROVAL ( #65, 'UNSPECIFIED' ) ;
#165 = EDGE_LOOP ( 'NONE', ( #217 ) ) ;
#166 = EDGE_LOOP ( 'NONE', ( #97 ) ) ;
#167 = VERTEX_POINT ( 'NONE', #13 ) ;
#168 = DIRECTION ( 'NONE',  ( 0.0000000000000000000, 1.000000000000000000, 0.0000000000000000000 ) ) ;
#169 = CIRCLE ( 'NONE', #161, 3.000000000000002665 ) ;
#170 = ADVANCED_FACE ( 'NONE', ( #155 ), #45, .F. ) ;
#171 = DIRECTION ( 'NONE',  ( 0.0000000000000000000, 1.000000000000000000, 0.0000000000000000000 ) ) ;
#172 = DIRECTION ( 'NONE',  ( -3.491481338843133355E-15, 1.224646799147353207E-16, -1.000000000000000000 ) ) ;
#173 = DIRECTION ( 'NONE',  ( -3.491481338843133355E-15, 1.224646799147353207E-16, -1.000000000000000000 ) ) ;
#174 = APPROVAL_PERSON_ORGANIZATION ( #127, #115, #126 ) ;
#175 = DATE_AND_TIME ( #179, #128 ) ;
#176 = DATE_AND_TIME ( #7, #36 ) ;
#177 = VERTEX_POINT ( 'NONE', #64 ) ;
#178 = EDGE_CURVE ( 'NONE', #188, #188, #2, .T. ) ;
#179 = CALENDAR_DATE ( 2021, 15, 11 ) ;
#180 = TOROIDAL_SURFACE ( 'NONE', #134, 9.500000000000000000, 8.000000000000000000 ) ;
#181 = PRODUCT_DEFINITION_SHAPE ( 'NONE', 'NONE',  #131 ) ;
#182 = DIRECTION ( 'NONE',  ( 3.491481338843133355E-15, -1.244996138440932305E-16, 1.000000000000000000 ) ) ;
#183 = AXIS2_PLACEMENT_3D ( 'NONE', #203, #117, #135 ) ;
#184 = ADVANCED_BREP_SHAPE_REPRESENTATION ( '57233', ( #154, #223, #25 ), #84 ) ;
#185 = CC_DESIGN_PERSON_AND_ORGANIZATION_ASSIGNMENT ( #124, #194, ( #214 ) ) ;
#186 = AXIS2_PLACEMENT_3D ( 'NONE', #31, #103, #118 ) ;
#187 = CARTESIAN_POINT ( 'NONE',  ( 4.421503566283302108E-14, -2.315351021120327496E-15, 12.66368952654440427 ) ) ;
#188 = VERTEX_POINT ( 'NONE', #30 ) ;
#189 = AXIS2_PLACEMENT_3D ( 'NONE', #11, #182, #71 ) ;
#190 = DIRECTION ( 'NONE',  ( 3.491481338843133355E-15, -1.244996138440932305E-16, 1.000000000000000000 ) ) ;
#191 = FACE_OUTER_BOUND ( 'NONE', #165, .T. ) ;
#192 = PERSON_AND_ORGANIZATION_ROLE ( 'design_owner' ) ;
#193 = AXIS2_PLACEMENT_3D ( 'NONE', #47, #173, #159 ) ;
#194 = PERSON_AND_ORGANIZATION_ROLE ( 'classification_officer' ) ;
#195 = APPROVAL_ROLE ( '' ) ;
#196 = CC_DESIGN_PERSON_AND_ORGANIZATION_ASSIGNMENT ( #8, #192, ( #88 ) ) ;
#197 = MECHANICAL_CONTEXT ( 'NONE', #152, 'mechanical' ) ;
#198 = APPROVAL_STATUS ( 'not_yet_approved' ) ;
#199 = APPLICATION_CONTEXT ( 'configuration controlled 3d designs of mechanical parts and assemblies' ) ;
#200 = ORIENTED_EDGE ( 'NONE', *, *, #21, .T. ) ;
#201 = ORIENTED_EDGE ( 'NONE', *, *, #109, .F. ) ;
#202 = ADVANCED_FACE ( 'NONE', ( #137, #139 ), #132, .T. ) ;
#203 = CARTESIAN_POINT ( 'NONE',  ( 2.793185071074506684E-14, 2.249639673992782580E-32, 8.000000000000000000 ) ) ;
#204 = CARTESIAN_POINT ( 'NONE',  ( 1.990144363140586139E-13, 2.499999999999995559, 57.00000000000000000 ) ) ;
#205 = CARTESIAN_POINT ( 'NONE',  ( 2.793185071074506053E-14, -1.734723475976807094E-15, 7.999999999999998224 ) ) ;
#206 = DIRECTION ( 'NONE',  ( 3.491481338843133355E-15, -1.244996138440932305E-16, 1.000000000000000000 ) ) ;
#207 = FACE_OUTER_BOUND ( 'NONE', #93, .T. ) ;
#208 = ADVANCED_FACE ( 'NONE', ( #3 ), #63, .T. ) ;
#209 = CALENDAR_DATE ( 2021, 15, 11 ) ;
#210 = APPROVAL_PERSON_ORGANIZATION ( #4, #164, #20 ) ;
#211 = PERSON ( 'UNSPECIFIED', 'UNSPECIFIED', 'UNSPECIFIED', ('UNSPECIFIED'), ('UNSPECIFIED'), ('UNSPECIFIED') ) ;
#212 = EDGE_CURVE ( 'NONE', #177, #177, #111, .T. ) ;
#213 = COORDINATED_UNIVERSAL_TIME_OFFSET ( 1, 0, .AHEAD. ) ;
#214 = SECURITY_CLASSIFICATION ( '', '', #160 ) ;
#215 = EDGE_LOOP ( 'NONE', ( #99 ) ) ;
#216 = DIRECTION ( 'NONE',  ( 3.491481338843133355E-15, -1.224646799147353207E-16, 1.000000000000000000 ) ) ;
#217 = ORIENTED_EDGE ( 'NONE', *, *, #212, .T. ) ;
#218 = EDGE_LOOP ( 'NONE', ( #130 ) ) ;
#219 = EDGE_LOOP ( 'NONE', ( #73 ) ) ;
#220 = VERTEX_POINT ( 'NONE', #204 ) ;
#221 = CARTESIAN_POINT ( 'NONE',  ( 1.972686956446370535E-13, -6.919254415182545337E-15, 56.50000000000000000 ) ) ;
#222 = DIRECTION ( 'NONE',  ( -3.491481338843133355E-15, 1.224646799147353207E-16, -1.000000000000000000 ) ) ;
#223 = MANIFOLD_SOLID_BREP ( 'Corps-Déplacer/Copier1[2]', #49 ) ;
ENDSEC;
END-ISO-10303-21;
