ISO-10303-21;
HEADER;
FILE_DESCRIPTION (( 'STEP AP203' ),
    '1' );
FILE_NAME ('57232.step',
    '2021-11-15T14:47:00',
    ( '' ),
    ( '' ),
    'SwSTEP 2.0',
    'SolidWorks 2019',
    '' );
FILE_SCHEMA (( 'CONFIG_CONTROL_DESIGN' ));
ENDSEC;

DATA;
#1 = CARTESIAN_POINT ( 'NONE',  ( -4.346880784298276734E-31, 1.550015384732832965E-32, -1.244996138440932305E-16 ) ) ;
#2 = LOCAL_TIME ( 15, 47, 0.0000000000000000000, #195 ) ;
#3 =( LENGTH_UNIT ( ) NAMED_UNIT ( * ) SI_UNIT ( .MILLI., .METRE. ) );
#4 = PRODUCT_DEFINITION_FORMATION_WITH_SPECIFIED_SOURCE ( 'ANY', '', #27, .NOT_KNOWN. ) ;
#5 = ADVANCED_FACE ( 'NONE', ( #113, #26 ), #119, .T. ) ;
#6 = VERTEX_POINT ( 'NONE', #174 ) ;
#7 = VERTEX_POINT ( 'NONE', #156 ) ;
#8 = PLANE ( 'NONE',  #85 ) ;
#9 = ORIENTED_EDGE ( 'NONE', *, *, #18, .F. ) ;
#10 = APPROVAL_DATE_TIME ( #177, #139 ) ;
#11 = ORIENTED_EDGE ( 'NONE', *, *, #178, .T. ) ;
#12 = ADVANCED_BREP_SHAPE_REPRESENTATION ( '57232', ( #72, #148, #112 ), #43 ) ;
#13 = CC_DESIGN_DATE_AND_TIME_ASSIGNMENT ( #208, #142, ( #149 ) ) ;
#14 = CIRCLE ( 'NONE', #172, 1.000000000000001776 ) ;
#15 = PERSON_AND_ORGANIZATION_ROLE ( 'design_supplier' ) ;
#16 = EDGE_LOOP ( 'NONE', ( #199 ) ) ;
#17 = DIRECTION ( 'NONE',  ( 0.0000000000000000000, -1.000000000000000000, 0.0000000000000000000 ) ) ;
#18 = EDGE_CURVE ( 'NONE', #73, #73, #135, .T. ) ;
#19 = CIRCLE ( 'NONE', #140, 1.199999999999996403 ) ;
#20 = PLANE ( 'NONE',  #48 ) ;
#21 = DIRECTION ( 'NONE',  ( 4.275831445896958607E-31, 1.000000000000000000, 1.224646799147353207E-16 ) ) ;
#22 = AXIS2_PLACEMENT_3D ( 'NONE', #1, #99, #67 ) ;
#23 = APPROVAL_ROLE ( '' ) ;
#24 = DIRECTION ( 'NONE',  ( 1.000000000000000000, 0.0000000000000000000, 0.0000000000000000000 ) ) ;
#25 = CARTESIAN_POINT ( 'NONE',  ( 2.444036937190193033E-14, -1.000000000000002665, 6.999999999999999112 ) ) ;
#26 = FACE_OUTER_BOUND ( 'NONE', #163, .T. ) ;
#27 = PRODUCT ( '57232', '57232', '', ( #144 ) ) ;
#28 = APPROVAL ( #123, 'UNSPECIFIED' ) ;
#29 = ORGANIZATION ( 'UNSPECIFIED', 'UNSPECIFIED', '' ) ;
#30 = DATE_TIME_ROLE ( 'classification_date' ) ;
#31 = ORIENTED_EDGE ( 'NONE', *, *, #91, .F. ) ;
#32 = CARTESIAN_POINT ( 'NONE',  ( 1.326762908760390423E-13, -4.653657836759941941E-15, 38.00000000000000000 ) ) ;
#33 = DIRECTION ( 'NONE',  ( -3.491481338843133355E-15, 1.224646799147353207E-16, -1.000000000000000000 ) ) ;
#34 = UNCERTAINTY_MEASURE_WITH_UNIT (LENGTH_MEASURE( 1.000000000000000082E-05 ), #3, 'distance_accuracy_value', 'NONE');
#35 = DIRECTION ( 'NONE',  ( -3.491481338843133355E-15, 1.224646799147353207E-16, -1.000000000000000000 ) ) ;
#36 = FACE_OUTER_BOUND ( 'NONE', #202, .T. ) ;
#37 = TOROIDAL_SURFACE ( 'NONE', #176, 9.000000000000003553, 8.000000000000000000 ) ;
#38 = ADVANCED_FACE ( 'NONE', ( #206, #133 ), #37, .F. ) ;
#39 = PRODUCT_DEFINITION_SHAPE ( 'NONE', 'NONE',  #149 ) ;
#40 = DIRECTION ( 'NONE',  ( 4.275831445896958607E-31, 1.000000000000000000, 1.224646799147353207E-16 ) ) ;
#41 = AXIS2_PLACEMENT_3D ( 'NONE', #134, #64, #53 ) ;
#42 = DIRECTION ( 'NONE',  ( -3.491481338843133355E-15, 1.224646799147353207E-16, -1.000000000000000000 ) ) ;
#43 =( GEOMETRIC_REPRESENTATION_CONTEXT ( 3 ) GLOBAL_UNCERTAINTY_ASSIGNED_CONTEXT ( ( #34 ) ) GLOBAL_UNIT_ASSIGNED_CONTEXT ( ( #3, #213, #60 ) ) REPRESENTATION_CONTEXT ( 'NONE', 'WORKASPACE' ) );
#44 = APPROVAL_ROLE ( '' ) ;
#45 = DATE_AND_TIME ( #130, #146 ) ;
#46 = ORIENTED_EDGE ( 'NONE', *, *, #178, .F. ) ;
#47 = EDGE_CURVE ( 'NONE', #6, #6, #214, .T. ) ;
#48 = AXIS2_PLACEMENT_3D ( 'NONE', #171, #137, #83 ) ;
#49 = ORIENTED_EDGE ( 'NONE', *, *, #47, .T. ) ;
#50 = DIRECTION ( 'NONE',  ( 0.0000000000000000000, 1.000000000000000000, 0.0000000000000000000 ) ) ;
#51 = CLOSED_SHELL ( 'NONE', ( #121, #129, #222, #38, #107 ) ) ;
#52 = CIRCLE ( 'NONE', #209, 1.499999999999994893 ) ;
#53 = DIRECTION ( 'NONE',  ( -4.275831445896958607E-31, -1.000000000000000000, -1.224646799147353207E-16 ) ) ;
#54 = CARTESIAN_POINT ( 'NONE',  ( 1.326762908760390423E-13, -4.653657836759941941E-15, 38.00000000000000000 ) ) ;
#55 = PLANE ( 'NONE',  #41 ) ;
#56 = DIRECTION ( 'NONE',  ( 3.491481338843133355E-15, -1.224646799147353207E-16, 1.000000000000000000 ) ) ;
#57 = CARTESIAN_POINT ( 'NONE',  ( 0.0000000000000000000, 0.0000000000000000000, 0.0000000000000000000 ) ) ;
#58 = APPLICATION_PROTOCOL_DEFINITION ( 'international standard', 'config_control_design', 1994, #153 ) ;
#59 = CONICAL_SURFACE ( 'NONE', #200, 1.199999999999996403, 0.7853981633974461696 ) ;
#60 =( NAMED_UNIT ( * ) SI_UNIT ( $, .STERADIAN. ) SOLID_ANGLE_UNIT ( ) );
#61 = EDGE_LOOP ( 'NONE', ( #9 ) ) ;
#62 = EDGE_LOOP ( 'NONE', ( #218 ) ) ;
#63 = EDGE_LOOP ( 'NONE', ( #49 ) ) ;
#64 = DIRECTION ( 'NONE',  ( 3.491481338843133355E-15, -1.224646799147353207E-16, 1.000000000000000000 ) ) ;
#65 = ADVANCED_FACE ( 'NONE', ( #36 ), #20, .T. ) ;
#66 = CARTESIAN_POINT ( 'NONE',  ( 0.0000000000000000000, 0.0000000000000000000, 0.0000000000000000000 ) ) ;
#67 = DIRECTION ( 'NONE',  ( -4.346880784298278486E-31, -1.000000000000000000, -1.244996138440932305E-16 ) ) ;
#68 = DIRECTION ( 'NONE',  ( -4.409363829953005302E-31, -1.000000000000000000, -1.244996138440932305E-16 ) ) ;
#69 = DATE_AND_TIME ( #126, #2 ) ;
#70 = LOCAL_TIME ( 15, 47, 0.0000000000000000000, #180 ) ;
#71 = APPROVAL_DATE_TIME ( #69, #170 ) ;
#72 = MANIFOLD_SOLID_BREP ( 'Corps-Déplacer/Copier1[1]', #51 ) ;
#73 = VERTEX_POINT ( 'NONE', #25 ) ;
#74 = CC_DESIGN_APPROVAL ( #170, ( #149 ) ) ;
#75 = APPLICATION_CONTEXT ( 'configuration controlled 3d designs of mechanical parts and assemblies' ) ;
#76 = CALENDAR_DATE ( 2021, 15, 11 ) ;
#77 = PERSON_AND_ORGANIZATION_ROLE ( 'creator' ) ;
#78 = EDGE_LOOP ( 'NONE', ( #166 ) ) ;
#79 = ORIENTED_EDGE ( 'NONE', *, *, #91, .T. ) ;
#80 = DIRECTION ( 'NONE',  ( 0.0000000000000000000, 1.000000000000000000, 0.0000000000000000000 ) ) ;
#81 = APPROVAL_PERSON_ORGANIZATION ( #219, #139, #44 ) ;
#82 = DIRECTION ( 'NONE',  ( 0.0000000000000000000, -1.000000000000000000, 0.0000000000000000000 ) ) ;
#83 = DIRECTION ( 'NONE',  ( -4.275831445896958607E-31, -1.000000000000000000, -1.224646799147353207E-16 ) ) ;
#84 = FACE_OUTER_BOUND ( 'NONE', #62, .T. ) ;
#85 = AXIS2_PLACEMENT_3D ( 'NONE', #122, #56, #192 ) ;
#86 = CARTESIAN_POINT ( 'NONE',  ( 2.444036937190193033E-14, -8.714972969086524658E-16, 6.999999999999999112 ) ) ;
#87 = VERTEX_POINT ( 'NONE', #108 ) ;
#88 = APPROVAL_STATUS ( 'not_yet_approved' ) ;
#89 = CARTESIAN_POINT ( 'NONE',  ( 1.326762908760390423E-13, 8.998558695971051224E-33, 38.00000000000000000 ) ) ;
#90 = AXIS2_PLACEMENT_3D ( 'NONE', #89, #42, #40 ) ;
#91 = EDGE_CURVE ( 'NONE', #196, #196, #52, .T. ) ;
#92 = VERTEX_POINT ( 'NONE', #105 ) ;
#93 = COORDINATED_UNIVERSAL_TIME_OFFSET ( 1, 0, .AHEAD. ) ;
#94 = COORDINATED_UNIVERSAL_TIME_OFFSET ( 1, 0, .AHEAD. ) ;
#95 = EDGE_LOOP ( 'NONE', ( #179 ) ) ;
#96 = PERSON_AND_ORGANIZATION ( #210, #29 ) ;
#97 = APPROVAL_PERSON_ORGANIZATION ( #124, #170, #23 ) ;
#98 = EDGE_LOOP ( 'NONE', ( #31 ) ) ;
#99 = DIRECTION ( 'NONE',  ( 3.491481338843133355E-15, -1.244996138440932305E-16, 1.000000000000000000 ) ) ;
#100 = CC_DESIGN_APPROVAL ( #139, ( #183 ) ) ;
#101 = DIRECTION ( 'NONE',  ( -3.491481338843133355E-15, 1.224646799147353207E-16, -1.000000000000000000 ) ) ;
#102 = CARTESIAN_POINT ( 'NONE',  ( 2.444036937190193033E-14, -8.714972969086524658E-16, 6.999999999999999112 ) ) ;
#103 = DIRECTION ( 'NONE',  ( -4.346880784298277610E-31, -1.000000000000000000, -1.244996138440932552E-16 ) ) ;
#104 = CC_DESIGN_APPROVAL ( #28, ( #4 ) ) ;
#105 = CARTESIAN_POINT ( 'NONE',  ( -8.693761568596555220E-31, -1.000000000000000000, -2.489992276881864611E-16 ) ) ;
#106 = PERSON_AND_ORGANIZATION ( #210, #29 ) ;
#107 = ADVANCED_FACE ( 'NONE', ( #185 ), #55, .F. ) ;
#108 = CARTESIAN_POINT ( 'NONE',  ( 1.326762908760390423E-13, 1.199999999999991962, 38.00000000000000000 ) ) ;
#109 = AXIS2_PLACEMENT_3D ( 'NONE', #115, #101, #21 ) ;
#110 = PERSON_AND_ORGANIZATION ( #210, #29 ) ;
#111 = CC_DESIGN_PERSON_AND_ORGANIZATION_ASSIGNMENT ( #96, #77, ( #4 ) ) ;
#112 = AXIS2_PLACEMENT_3D ( 'NONE', #57, #191, #24 ) ;
#113 = FACE_OUTER_BOUND ( 'NONE', #131, .T. ) ;
#114 = EDGE_LOOP ( 'NONE', ( #46 ) ) ;
#115 = CARTESIAN_POINT ( 'NONE',  ( 0.0000000000000000000, 0.0000000000000000000, 0.0000000000000000000 ) ) ;
#116 = CARTESIAN_POINT ( 'NONE',  ( 3.416024205785027231E-14, -2.081315732550424822E-15, 9.783882181414988111 ) ) ;
#117 = AXIS2_PLACEMENT_3D ( 'NONE', #86, #207, #17 ) ;
#118 = DIRECTION ( 'NONE',  ( 0.0000000000000000000, 1.000000000000000000, 0.0000000000000000000 ) ) ;
#119 = CYLINDRICAL_SURFACE ( 'NONE', #154, 1.000000000000000888 ) ;
#120 = CC_DESIGN_SECURITY_CLASSIFICATION ( #183, ( #4 ) ) ;
#121 = ADVANCED_FACE ( 'NONE', ( #184, #136 ), #203, .T. ) ;
#122 = CARTESIAN_POINT ( 'NONE',  ( -8.551680453529350800E-31, 2.999525725151307090E-32, -2.449298628175645296E-16 ) ) ;
#123 = APPROVAL_STATUS ( 'not_yet_approved' ) ;
#124 = PERSON_AND_ORGANIZATION ( #210, #29 ) ;
#125 = CC_DESIGN_PERSON_AND_ORGANIZATION_ASSIGNMENT ( #106, #175, ( #149 ) ) ;
#126 = CALENDAR_DATE ( 2021, 15, 11 ) ;
#127 = APPROVAL_DATE_TIME ( #45, #28 ) ;
#128 = SECURITY_CLASSIFICATION_LEVEL ( 'unclassified' ) ;
#129 = ADVANCED_FACE ( 'NONE', ( #84, #187 ), #59, .T. ) ;
#130 = CALENDAR_DATE ( 2021, 15, 11 ) ;
#131 = EDGE_LOOP ( 'NONE', ( #11 ) ) ;
#132 = CC_DESIGN_PERSON_AND_ORGANIZATION_ASSIGNMENT ( #162, #147, ( #183 ) ) ;
#133 = FACE_OUTER_BOUND ( 'NONE', #181, .T. ) ;
#134 = CARTESIAN_POINT ( 'NONE',  ( 2.444036937190193349E-14, 1.124819836996386774E-32, 7.000000000000000000 ) ) ;
#135 = CIRCLE ( 'NONE', #117, 1.000000000000001776 ) ;
#136 = FACE_OUTER_BOUND ( 'NONE', #98, .T. ) ;
#137 = DIRECTION ( 'NONE',  ( 3.491481338843133355E-15, -1.224646799147353207E-16, 1.000000000000000000 ) ) ;
#138 = COORDINATED_UNIVERSAL_TIME_OFFSET ( 1, 0, .AHEAD. ) ;
#139 = APPROVAL ( #201, 'UNSPECIFIED' ) ;
#140 = AXIS2_PLACEMENT_3D ( 'NONE', #54, #35, #118 ) ;
#141 = FACE_OUTER_BOUND ( 'NONE', #95, .T. ) ;
#142 = DATE_TIME_ROLE ( 'creation_date' ) ;
#143 = CARTESIAN_POINT ( 'NONE',  ( 3.416024205785027231E-14, 1.499999999999992673, 9.783882181414988111 ) ) ;
#144 = MECHANICAL_CONTEXT ( 'NONE', #153, 'mechanical' ) ;
#145 = ORIENTED_EDGE ( 'NONE', *, *, #173, .F. ) ;
#146 = LOCAL_TIME ( 15, 47, 0.0000000000000000000, #93 ) ;
#147 = PERSON_AND_ORGANIZATION_ROLE ( 'classification_officer' ) ;
#148 = MANIFOLD_SOLID_BREP ( 'Corps-Déplacer/Copier1[2]', #182 ) ;
#149 = PRODUCT_DEFINITION ( 'UNKNOWN', '', #4, #189 ) ;
#150 = CIRCLE ( 'NONE', #22, 1.000000000000000000 ) ;
#151 = DIRECTION ( 'NONE',  ( -3.491481338843133355E-15, 1.244996138440932305E-16, -1.000000000000000000 ) ) ;
#152 = DIRECTION ( 'NONE',  ( 3.491481338843133355E-15, -1.244996138440932305E-16, 1.000000000000000000 ) ) ;
#153 = APPLICATION_CONTEXT ( 'configuration controlled 3d designs of mechanical parts and assemblies' ) ;
#154 = AXIS2_PLACEMENT_3D ( 'NONE', #66, #167, #103 ) ;
#155 = DIRECTION ( 'NONE',  ( -3.491481338843133355E-15, 1.224646799147353207E-16, -1.000000000000000000 ) ) ;
#156 = CARTESIAN_POINT ( 'NONE',  ( 2.444036937190193033E-14, -1.000000000000002665, 6.999999999999999112 ) ) ;
#157 = APPROVAL_PERSON_ORGANIZATION ( #212, #28, #193 ) ;
#158 = CALENDAR_DATE ( 2021, 15, 11 ) ;
#159 = PLANE ( 'NONE',  #90 ) ;
#160 = APPLICATION_PROTOCOL_DEFINITION ( 'international standard', 'config_control_design', 1994, #75 ) ;
#161 = CALENDAR_DATE ( 2021, 15, 11 ) ;
#162 = PERSON_AND_ORGANIZATION ( #210, #29 ) ;
#163 = EDGE_LOOP ( 'NONE', ( #145 ) ) ;
#164 = PERSON_AND_ORGANIZATION ( #210, #29 ) ;
#165 = ORIENTED_EDGE ( 'NONE', *, *, #173, .T. ) ;
#166 = ORIENTED_EDGE ( 'NONE', *, *, #18, .T. ) ;
#167 = DIRECTION ( 'NONE',  ( 3.491481338843133355E-15, -1.244996138440932305E-16, 1.000000000000000000 ) ) ;
#168 = DIRECTION ( 'NONE',  ( 0.0000000000000000000, 1.000000000000000000, 0.0000000000000000000 ) ) ;
#169 = LOCAL_TIME ( 15, 47, 0.0000000000000000000, #138 ) ;
#170 = APPROVAL ( #88, 'UNSPECIFIED' ) ;
#171 = CARTESIAN_POINT ( 'NONE',  ( 2.444036937190193349E-14, 1.124819836996386774E-32, 7.000000000000000000 ) ) ;
#172 = AXIS2_PLACEMENT_3D ( 'NONE', #102, #152, #82 ) ;
#173 = EDGE_CURVE ( 'NONE', #7, #7, #14, .T. ) ;
#174 = CARTESIAN_POINT ( 'NONE',  ( 1.316288464743861212E-13, 1.499999999999992228, 37.69999999999999574 ) ) ;
#175 = PERSON_AND_ORGANIZATION_ROLE ( 'creator' ) ;
#176 = AXIS2_PLACEMENT_3D ( 'NONE', #223, #221, #68 ) ;
#177 = DATE_AND_TIME ( #76, #215 ) ;
#178 = EDGE_CURVE ( 'NONE', #92, #92, #150, .T. ) ;
#179 = ORIENTED_EDGE ( 'NONE', *, *, #186, .F. ) ;
#180 = COORDINATED_UNIVERSAL_TIME_OFFSET ( 1, 0, .AHEAD. ) ;
#181 = EDGE_LOOP ( 'NONE', ( #79 ) ) ;
#182 = CLOSED_SHELL ( 'NONE', ( #65, #5, #190 ) ) ;
#183 = SECURITY_CLASSIFICATION ( '', '', #128 ) ;
#184 = FACE_OUTER_BOUND ( 'NONE', #63, .T. ) ;
#185 = FACE_OUTER_BOUND ( 'NONE', #61, .T. ) ;
#186 = EDGE_CURVE ( 'NONE', #87, #87, #19, .T. ) ;
#187 = FACE_BOUND ( 'NONE', #16, .T. ) ;
#188 = FACE_OUTER_BOUND ( 'NONE', #114, .T. ) ;
#189 = DESIGN_CONTEXT ( 'detailed design', #75, 'design' ) ;
#190 = ADVANCED_FACE ( 'NONE', ( #188 ), #8, .F. ) ;
#191 = DIRECTION ( 'NONE',  ( 0.0000000000000000000, 0.0000000000000000000, 1.000000000000000000 ) ) ;
#192 = DIRECTION ( 'NONE',  ( -4.275831445896958607E-31, -1.000000000000000000, -1.224646799147353207E-16 ) ) ;
#193 = APPROVAL_ROLE ( '' ) ;
#194 = CC_DESIGN_DATE_AND_TIME_ASSIGNMENT ( #198, #30, ( #183 ) ) ;
#195 = COORDINATED_UNIVERSAL_TIME_OFFSET ( 1, 0, .AHEAD. ) ;
#196 = VERTEX_POINT ( 'NONE', #143 ) ;
#197 = PRODUCT_RELATED_PRODUCT_CATEGORY ( 'detail', '', ( #27 ) ) ;
#198 = DATE_AND_TIME ( #161, #70 ) ;
#199 = ORIENTED_EDGE ( 'NONE', *, *, #186, .T. ) ;
#200 = AXIS2_PLACEMENT_3D ( 'NONE', #32, #33, #168 ) ;
#201 = APPROVAL_STATUS ( 'not_yet_approved' ) ;
#202 = EDGE_LOOP ( 'NONE', ( #165 ) ) ;
#203 = CYLINDRICAL_SURFACE ( 'NONE', #109, 1.499999999999994893 ) ;
#204 = CC_DESIGN_PERSON_AND_ORGANIZATION_ASSIGNMENT ( #110, #216, ( #27 ) ) ;
#205 = CARTESIAN_POINT ( 'NONE',  ( 1.316288464743861212E-13, -4.616918432785521081E-15, 37.69999999999999574 ) ) ;
#206 = FACE_OUTER_BOUND ( 'NONE', #78, .T. ) ;
#207 = DIRECTION ( 'NONE',  ( 3.491481338843133355E-15, -1.244996138440932305E-16, 1.000000000000000000 ) ) ;
#208 = DATE_AND_TIME ( #158, #169 ) ;
#209 = AXIS2_PLACEMENT_3D ( 'NONE', #116, #151, #80 ) ;
#210 = PERSON ( 'UNSPECIFIED', 'UNSPECIFIED', 'UNSPECIFIED', ('UNSPECIFIED'), ('UNSPECIFIED'), ('UNSPECIFIED') ) ;
#211 = CC_DESIGN_PERSON_AND_ORGANIZATION_ASSIGNMENT ( #164, #15, ( #4 ) ) ;
#212 = PERSON_AND_ORGANIZATION ( #210, #29 ) ;
#213 =( NAMED_UNIT ( * ) PLANE_ANGLE_UNIT ( ) SI_UNIT ( $, .RADIAN. ) );
#214 = CIRCLE ( 'NONE', #220, 1.499999999999996669 ) ;
#215 = LOCAL_TIME ( 15, 47, 0.0000000000000000000, #94 ) ;
#216 = PERSON_AND_ORGANIZATION_ROLE ( 'design_owner' ) ;
#217 = SHAPE_DEFINITION_REPRESENTATION ( #39, #12 ) ;
#218 = ORIENTED_EDGE ( 'NONE', *, *, #47, .F. ) ;
#219 = PERSON_AND_ORGANIZATION ( #210, #29 ) ;
#220 = AXIS2_PLACEMENT_3D ( 'NONE', #205, #155, #50 ) ;
#221 = DIRECTION ( 'NONE',  ( 3.491481338843133355E-15, -1.244996138440932305E-16, 1.000000000000000000 ) ) ;
#222 = ADVANCED_FACE ( 'NONE', ( #141 ), #159, .F. ) ;
#223 = CARTESIAN_POINT ( 'NONE',  ( 2.444036937190193033E-14, -1.734723475976807094E-15, 6.999999999999999112 ) ) ;
ENDSEC;
END-ISO-10303-21;
