ISO-10303-21;
HEADER;
FILE_DESCRIPTION (( 'STEP AP203' ),
    '1' );
FILE_NAME ('57231.step',
    '2021-11-15T14:47:00',
    ( '' ),
    ( '' ),
    'SwSTEP 2.0',
    'SolidWorks 2019',
    '' );
FILE_SCHEMA (( 'CONFIG_CONTROL_DESIGN' ));
ENDSEC;

DATA;
#1 = CARTESIAN_POINT ( 'NONE',  ( 2.577389637849558787E-14, 1.499999999999994449, 7.381937314617155188 ) ) ;
#2 = ORIENTED_EDGE ( 'NONE', *, *, #128, .F. ) ;
#3 = EDGE_CURVE ( 'NONE', #129, #129, #192, .T. ) ;
#4 = CIRCLE ( 'NONE', #30, 1.499999999999994893 ) ;
#5 = CALENDAR_DATE ( 2021, 15, 11 ) ;
#6 = EDGE_LOOP ( 'NONE', ( #103 ) ) ;
#7 = CARTESIAN_POINT ( 'NONE',  ( 1.326762908760390423E-13, -4.653657836759941941E-15, 38.00000000000000000 ) ) ;
#8 = CIRCLE ( 'NONE', #41, 0.7500000000000000000 ) ;
#9 = PERSON_AND_ORGANIZATION_ROLE ( 'creator' ) ;
#10 = DIRECTION ( 'NONE',  ( -3.491481338843133355E-15, 1.224646799147353207E-16, -1.000000000000000000 ) ) ;
#11 = PLANE ( 'NONE',  #96 ) ;
#12 = FACE_OUTER_BOUND ( 'NONE', #195, .T. ) ;
#13 = CYLINDRICAL_SURFACE ( 'NONE', #82, 1.499999999999994893 ) ;
#14 = ADVANCED_FACE ( 'NONE', ( #185 ), #123, .T. ) ;
#15 = PRODUCT_DEFINITION_SHAPE ( 'NONE', 'NONE',  #188 ) ;
#16 = PERSON_AND_ORGANIZATION ( #159, #115 ) ;
#17 = CARTESIAN_POINT ( 'NONE',  ( 1.316288464743861212E-13, 1.499999999999992228, 37.69999999999999574 ) ) ;
#18 = AXIS2_PLACEMENT_3D ( 'NONE', #7, #31, #113 ) ;
#19 = CARTESIAN_POINT ( 'NONE',  ( -6.520321176447415539E-31, -0.7500000000000000000, -1.867494207661398458E-16 ) ) ;
#20 = CC_DESIGN_PERSON_AND_ORGANIZATION_ASSIGNMENT ( #108, #78, ( #188 ) ) ;
#21 = APPROVAL_STATUS ( 'not_yet_approved' ) ;
#22 = COORDINATED_UNIVERSAL_TIME_OFFSET ( 1, 0, .AHEAD. ) ;
#23 = ORIENTED_EDGE ( 'NONE', *, *, #3, .T. ) ;
#24 = APPROVAL_PERSON_ORGANIZATION ( #46, #54, #119 ) ;
#25 = APPROVAL_ROLE ( '' ) ;
#26 = PERSON_AND_ORGANIZATION ( #159, #115 ) ;
#27 = DIRECTION ( 'NONE',  ( -3.491481338843133355E-15, 1.224646799147353207E-16, -1.000000000000000000 ) ) ;
#28 = APPROVAL_DATE_TIME ( #121, #183 ) ;
#29 = CARTESIAN_POINT ( 'NONE',  ( 1.316288464743861212E-13, -4.616918432785521081E-15, 37.69999999999999574 ) ) ;
#30 = AXIS2_PLACEMENT_3D ( 'NONE', #201, #33, #50 ) ;
#31 = DIRECTION ( 'NONE',  ( -3.491481338843133355E-15, 1.224646799147353207E-16, -1.000000000000000000 ) ) ;
#32 = PLANE ( 'NONE',  #71 ) ;
#33 = DIRECTION ( 'NONE',  ( -3.491481338843133355E-15, 1.244996138440932305E-16, -1.000000000000000000 ) ) ;
#34 = CC_DESIGN_APPROVAL ( #183, ( #150 ) ) ;
#35 = MECHANICAL_CONTEXT ( 'NONE', #89, 'mechanical' ) ;
#36 = CARTESIAN_POINT ( 'NONE',  ( 0.0000000000000000000, 0.0000000000000000000, 0.0000000000000000000 ) ) ;
#37 =( GEOMETRIC_REPRESENTATION_CONTEXT ( 3 ) GLOBAL_UNCERTAINTY_ASSIGNED_CONTEXT ( ( #74 ) ) GLOBAL_UNIT_ASSIGNED_CONTEXT ( ( #153, #189, #186 ) ) REPRESENTATION_CONTEXT ( 'NONE', 'WORKASPACE' ) );
#38 = DIRECTION ( 'NONE',  ( 1.000000000000000000, 0.0000000000000000000, 0.0000000000000000000 ) ) ;
#39 = ADVANCED_FACE ( 'NONE', ( #216, #109 ), #218, .T. ) ;
#40 = SECURITY_CLASSIFICATION ( '', '', #193 ) ;
#41 = AXIS2_PLACEMENT_3D ( 'NONE', #181, #148, #67 ) ;
#42 = APPROVAL_DATE_TIME ( #194, #101 ) ;
#43 = DATE_AND_TIME ( #76, #105 ) ;
#44 = ORIENTED_EDGE ( 'NONE', *, *, #66, .T. ) ;
#45 = EDGE_LOOP ( 'NONE', ( #164 ) ) ;
#46 = PERSON_AND_ORGANIZATION ( #159, #115 ) ;
#47 = DIRECTION ( 'NONE',  ( -3.491481338843133355E-15, 1.224646799147353207E-16, -1.000000000000000000 ) ) ;
#48 = CARTESIAN_POINT ( 'NONE',  ( 1.326762908760390423E-13, 8.998558695971051224E-33, 38.00000000000000000 ) ) ;
#49 = EDGE_CURVE ( 'NONE', #151, #151, #8, .T. ) ;
#50 = DIRECTION ( 'NONE',  ( 0.0000000000000000000, 1.000000000000000000, 0.0000000000000000000 ) ) ;
#51 = EDGE_LOOP ( 'NONE', ( #77 ) ) ;
#52 = FACE_OUTER_BOUND ( 'NONE', #155, .T. ) ;
#53 = APPROVAL_STATUS ( 'not_yet_approved' ) ;
#54 = APPROVAL ( #21, 'UNSPECIFIED' ) ;
#55 = DIRECTION ( 'NONE',  ( 3.491481338843133355E-15, -1.244996138440932305E-16, 1.000000000000000000 ) ) ;
#56 = EDGE_CURVE ( 'NONE', #102, #102, #4, .T. ) ;
#57 = EDGE_LOOP ( 'NONE', ( #79 ) ) ;
#58 = ORIENTED_EDGE ( 'NONE', *, *, #49, .T. ) ;
#59 = DATE_TIME_ROLE ( 'classification_date' ) ;
#60 = EDGE_LOOP ( 'NONE', ( #23 ) ) ;
#61 = EDGE_LOOP ( 'NONE', ( #175 ) ) ;
#62 = COORDINATED_UNIVERSAL_TIME_OFFSET ( 1, 0, .AHEAD. ) ;
#63 = ORIENTED_EDGE ( 'NONE', *, *, #66, .F. ) ;
#64 = CC_DESIGN_SECURITY_CLASSIFICATION ( #40, ( #150 ) ) ;
#65 = DIRECTION ( 'NONE',  ( 3.491481338843133355E-15, -1.244996138440932305E-16, 1.000000000000000000 ) ) ;
#66 = EDGE_CURVE ( 'NONE', #170, #170, #88, .T. ) ;
#67 = DIRECTION ( 'NONE',  ( -4.346880784298276734E-31, -1.000000000000000000, -1.244996138440932305E-16 ) ) ;
#68 = CARTESIAN_POINT ( 'NONE',  ( 1.396592535537252711E-14, -4.979984553763727249E-16, 3.999999999999998224 ) ) ;
#69 = CIRCLE ( 'NONE', #18, 1.199999999999996403 ) ;
#70 = DIRECTION ( 'NONE',  ( 3.491481338843133355E-15, -1.224646799147353207E-16, 1.000000000000000000 ) ) ;
#71 = AXIS2_PLACEMENT_3D ( 'NONE', #48, #47, #83 ) ;
#72 = APPLICATION_PROTOCOL_DEFINITION ( 'international standard', 'config_control_design', 1994, #89 ) ;
#73 = VERTEX_POINT ( 'NONE', #135 ) ;
#74 = UNCERTAINTY_MEASURE_WITH_UNIT (LENGTH_MEASURE( 1.000000000000000082E-05 ), #153, 'distance_accuracy_value', 'NONE');
#75 = APPLICATION_CONTEXT ( 'configuration controlled 3d designs of mechanical parts and assemblies' ) ;
#76 = CALENDAR_DATE ( 2021, 15, 11 ) ;
#77 = ORIENTED_EDGE ( 'NONE', *, *, #56, .T. ) ;
#78 = PERSON_AND_ORGANIZATION_ROLE ( 'creator' ) ;
#79 = ORIENTED_EDGE ( 'NONE', *, *, #221, .T. ) ;
#80 = PERSON_AND_ORGANIZATION ( #159, #115 ) ;
#81 = DIRECTION ( 'NONE',  ( 0.0000000000000000000, -1.000000000000000000, 0.0000000000000000000 ) ) ;
#82 = AXIS2_PLACEMENT_3D ( 'NONE', #200, #10, #182 ) ;
#83 = DIRECTION ( 'NONE',  ( 4.275831445896958607E-31, 1.000000000000000000, 1.224646799147353207E-16 ) ) ;
#84 = CARTESIAN_POINT ( 'NONE',  ( -8.551680453529350800E-31, 2.999525725151307090E-32, -2.449298628175645296E-16 ) ) ;
#85 = APPROVAL_PERSON_ORGANIZATION ( #206, #101, #25 ) ;
#86 = ADVANCED_FACE ( 'NONE', ( #149, #161 ), #197, .F. ) ;
#87 = LOCAL_TIME ( 15, 47, 0.0000000000000000000, #22 ) ;
#88 = CIRCLE ( 'NONE', #215, 1.499999999999996669 ) ;
#89 = APPLICATION_CONTEXT ( 'configuration controlled 3d designs of mechanical parts and assemblies' ) ;
#90 = LOCAL_TIME ( 15, 47, 0.0000000000000000000, #211 ) ;
#91 = CALENDAR_DATE ( 2021, 15, 11 ) ;
#92 = CC_DESIGN_DATE_AND_TIME_ASSIGNMENT ( #43, #106, ( #188 ) ) ;
#93 = SHAPE_DEFINITION_REPRESENTATION ( #15, #204 ) ;
#94 = DIRECTION ( 'NONE',  ( 0.0000000000000000000, 1.000000000000000000, 0.0000000000000000000 ) ) ;
#95 = DIRECTION ( 'NONE',  ( -3.491481338843133355E-15, 1.224646799147353207E-16, -1.000000000000000000 ) ) ;
#96 = AXIS2_PLACEMENT_3D ( 'NONE', #165, #98, #146 ) ;
#97 = DIRECTION ( 'NONE',  ( 3.491481338843133355E-15, -1.244996138440932305E-16, 1.000000000000000000 ) ) ;
#98 = DIRECTION ( 'NONE',  ( 3.491481338843133355E-15, -1.224646799147353207E-16, 1.000000000000000000 ) ) ;
#99 = DIRECTION ( 'NONE',  ( -4.410296412723971439E-31, -1.000000000000000000, -1.244996138440932305E-16 ) ) ;
#100 = PRODUCT_RELATED_PRODUCT_CATEGORY ( 'detail', '', ( #208 ) ) ;
#101 = APPROVAL ( #53, 'UNSPECIFIED' ) ;
#102 = VERTEX_POINT ( 'NONE', #1 ) ;
#103 = ORIENTED_EDGE ( 'NONE', *, *, #128, .T. ) ;
#104 = CC_DESIGN_PERSON_AND_ORGANIZATION_ASSIGNMENT ( #80, #174, ( #40 ) ) ;
#105 = LOCAL_TIME ( 15, 47, 0.0000000000000000000, #180 ) ;
#106 = DATE_TIME_ROLE ( 'creation_date' ) ;
#107 = PERSON_AND_ORGANIZATION ( #159, #115 ) ;
#108 = PERSON_AND_ORGANIZATION ( #159, #115 ) ;
#109 = FACE_OUTER_BOUND ( 'NONE', #61, .T. ) ;
#110 = CALENDAR_DATE ( 2021, 15, 11 ) ;
#111 = DIRECTION ( 'NONE',  ( -4.346880784298277610E-31, -1.000000000000000000, -1.244996138440932305E-16 ) ) ;
#112 = EDGE_LOOP ( 'NONE', ( #120 ) ) ;
#113 = DIRECTION ( 'NONE',  ( 0.0000000000000000000, 1.000000000000000000, 0.0000000000000000000 ) ) ;
#114 = ADVANCED_FACE ( 'NONE', ( #52, #12 ), #13, .T. ) ;
#115 = ORGANIZATION ( 'UNSPECIFIED', 'UNSPECIFIED', '' ) ;
#116 = CARTESIAN_POINT ( 'NONE',  ( 1.396592535537252711E-14, -0.7500000000000017764, 3.999999999999998224 ) ) ;
#117 = ADVANCED_FACE ( 'NONE', ( #184 ), #32, .F. ) ;
#118 = AXIS2_PLACEMENT_3D ( 'NONE', #223, #55, #187 ) ;
#119 = APPROVAL_ROLE ( '' ) ;
#120 = ORIENTED_EDGE ( 'NONE', *, *, #221, .F. ) ;
#121 = DATE_AND_TIME ( #91, #190 ) ;
#122 = FACE_BOUND ( 'NONE', #6, .T. ) ;
#123 = PLANE ( 'NONE',  #172 ) ;
#124 = DIRECTION ( 'NONE',  ( 3.491481338843133355E-15, -1.244996138440932305E-16, 1.000000000000000000 ) ) ;
#125 = CARTESIAN_POINT ( 'NONE',  ( 1.396592535537253342E-14, 1.124819836996387048E-32, 4.000000000000000000 ) ) ;
#126 = AXIS2_PLACEMENT_3D ( 'NONE', #178, #27, #94 ) ;
#127 = DIRECTION ( 'NONE',  ( -4.275831445896958607E-31, -1.000000000000000000, -1.224646799147353207E-16 ) ) ;
#128 = EDGE_CURVE ( 'NONE', #73, #73, #69, .T. ) ;
#129 = VERTEX_POINT ( 'NONE', #167 ) ;
#130 = PERSON_AND_ORGANIZATION_ROLE ( 'design_owner' ) ;
#131 = AXIS2_PLACEMENT_3D ( 'NONE', #202, #65, #111 ) ;
#132 = APPLICATION_PROTOCOL_DEFINITION ( 'international standard', 'config_control_design', 1994, #75 ) ;
#133 = DESIGN_CONTEXT ( 'detailed design', #75, 'design' ) ;
#134 = CC_DESIGN_DATE_AND_TIME_ASSIGNMENT ( #212, #59, ( #40 ) ) ;
#135 = CARTESIAN_POINT ( 'NONE',  ( 1.326762908760390423E-13, 1.199999999999991962, 38.00000000000000000 ) ) ;
#136 = ADVANCED_FACE ( 'NONE', ( #163 ), #11, .F. ) ;
#137 = EDGE_LOOP ( 'NONE', ( #58 ) ) ;
#138 = AXIS2_PLACEMENT_3D ( 'NONE', #84, #70, #127 ) ;
#139 = CALENDAR_DATE ( 2021, 15, 11 ) ;
#140 = APPROVAL_STATUS ( 'not_yet_approved' ) ;
#141 = ORIENTED_EDGE ( 'NONE', *, *, #56, .F. ) ;
#142 = APPROVAL_ROLE ( '' ) ;
#143 = FACE_OUTER_BOUND ( 'NONE', #45, .T. ) ;
#144 = MANIFOLD_SOLID_BREP ( 'Corps-Déplacer/Copier1[2]', #162 ) ;
#145 = CC_DESIGN_APPROVAL ( #54, ( #40 ) ) ;
#146 = DIRECTION ( 'NONE',  ( -4.275831445896958607E-31, -1.000000000000000000, -1.224646799147353207E-16 ) ) ;
#147 = AXIS2_PLACEMENT_3D ( 'NONE', #68, #124, #81 ) ;
#148 = DIRECTION ( 'NONE',  ( 3.491481338843133355E-15, -1.244996138440932305E-16, 1.000000000000000000 ) ) ;
#149 = FACE_OUTER_BOUND ( 'NONE', #57, .T. ) ;
#150 = PRODUCT_DEFINITION_FORMATION_WITH_SPECIFIED_SOURCE ( 'ANY', '', #208, .NOT_KNOWN. ) ;
#151 = VERTEX_POINT ( 'NONE', #19 ) ;
#152 = CC_DESIGN_PERSON_AND_ORGANIZATION_ASSIGNMENT ( #107, #9, ( #150 ) ) ;
#153 =( LENGTH_UNIT ( ) NAMED_UNIT ( * ) SI_UNIT ( .MILLI., .METRE. ) );
#154 = CC_DESIGN_PERSON_AND_ORGANIZATION_ASSIGNMENT ( #16, #130, ( #208 ) ) ;
#155 = EDGE_LOOP ( 'NONE', ( #44 ) ) ;
#156 = APPROVAL_PERSON_ORGANIZATION ( #26, #183, #142 ) ;
#157 = PERSON_AND_ORGANIZATION_ROLE ( 'design_supplier' ) ;
#158 = DATE_AND_TIME ( #139, #90 ) ;
#159 = PERSON ( 'UNSPECIFIED', 'UNSPECIFIED', 'UNSPECIFIED', ('UNSPECIFIED'), ('UNSPECIFIED'), ('UNSPECIFIED') ) ;
#160 = DIRECTION ( 'NONE',  ( -4.275831445896958607E-31, -1.000000000000000000, -1.224646799147353207E-16 ) ) ;
#161 = FACE_OUTER_BOUND ( 'NONE', #51, .T. ) ;
#162 = CLOSED_SHELL ( 'NONE', ( #14, #39, #179 ) ) ;
#163 = FACE_OUTER_BOUND ( 'NONE', #112, .T. ) ;
#164 = ORIENTED_EDGE ( 'NONE', *, *, #49, .F. ) ;
#165 = CARTESIAN_POINT ( 'NONE',  ( 1.396592535537253342E-14, 1.124819836996387048E-32, 4.000000000000000000 ) ) ;
#166 = LOCAL_TIME ( 15, 47, 0.0000000000000000000, #177 ) ;
#167 = CARTESIAN_POINT ( 'NONE',  ( 1.396592535537252711E-14, -0.7500000000000017764, 3.999999999999998224 ) ) ;
#168 = VERTEX_POINT ( 'NONE', #116 ) ;
#169 = AXIS2_PLACEMENT_3D ( 'NONE', #219, #97, #99 ) ;
#170 = VERTEX_POINT ( 'NONE', #17 ) ;
#171 = CONICAL_SURFACE ( 'NONE', #126, 1.199999999999996403, 0.7853981633974461696 ) ;
#172 = AXIS2_PLACEMENT_3D ( 'NONE', #125, #217, #160 ) ;
#173 = CC_DESIGN_PERSON_AND_ORGANIZATION_ASSIGNMENT ( #196, #157, ( #150 ) ) ;
#174 = PERSON_AND_ORGANIZATION_ROLE ( 'classification_officer' ) ;
#175 = ORIENTED_EDGE ( 'NONE', *, *, #3, .F. ) ;
#176 = EDGE_LOOP ( 'NONE', ( #63 ) ) ;
#177 = COORDINATED_UNIVERSAL_TIME_OFFSET ( 1, 0, .AHEAD. ) ;
#178 = CARTESIAN_POINT ( 'NONE',  ( 1.326762908760390423E-13, -4.653657836759941941E-15, 38.00000000000000000 ) ) ;
#179 = ADVANCED_FACE ( 'NONE', ( #143 ), #214, .F. ) ;
#180 = COORDINATED_UNIVERSAL_TIME_OFFSET ( 1, 0, .AHEAD. ) ;
#181 = CARTESIAN_POINT ( 'NONE',  ( -3.260160588223707770E-31, 1.162511538549624861E-32, -9.337471038306992290E-17 ) ) ;
#182 = DIRECTION ( 'NONE',  ( 4.275831445896958607E-31, 1.000000000000000000, 1.224646799147353207E-16 ) ) ;
#183 = APPROVAL ( #140, 'UNSPECIFIED' ) ;
#184 = FACE_OUTER_BOUND ( 'NONE', #209, .T. ) ;
#185 = FACE_OUTER_BOUND ( 'NONE', #60, .T. ) ;
#186 =( NAMED_UNIT ( * ) SI_UNIT ( $, .STERADIAN. ) SOLID_ANGLE_UNIT ( ) );
#187 = DIRECTION ( 'NONE',  ( 0.0000000000000000000, -1.000000000000000000, 0.0000000000000000000 ) ) ;
#188 = PRODUCT_DEFINITION ( 'UNKNOWN', '', #150, #133 ) ;
#189 =( NAMED_UNIT ( * ) PLANE_ANGLE_UNIT ( ) SI_UNIT ( $, .RADIAN. ) );
#190 = LOCAL_TIME ( 15, 47, 0.0000000000000000000, #62 ) ;
#191 = CIRCLE ( 'NONE', #118, 0.7500000000000012212 ) ;
#192 = CIRCLE ( 'NONE', #147, 0.7500000000000012212 ) ;
#193 = SECURITY_CLASSIFICATION_LEVEL ( 'unclassified' ) ;
#194 = DATE_AND_TIME ( #110, #87 ) ;
#195 = EDGE_LOOP ( 'NONE', ( #141 ) ) ;
#196 = PERSON_AND_ORGANIZATION ( #159, #115 ) ;
#197 = TOROIDAL_SURFACE ( 'NONE', #169, 8.750000000000000000, 8.000000000000000000 ) ;
#198 = DIRECTION ( 'NONE',  ( 0.0000000000000000000, 1.000000000000000000, 0.0000000000000000000 ) ) ;
#199 = ADVANCED_FACE ( 'NONE', ( #203, #122 ), #171, .T. ) ;
#200 = CARTESIAN_POINT ( 'NONE',  ( 0.0000000000000000000, 0.0000000000000000000, 0.0000000000000000000 ) ) ;
#201 = CARTESIAN_POINT ( 'NONE',  ( 2.577389637849558787E-14, -4.210498897147656248E-16, 7.381937314617155188 ) ) ;
#202 = CARTESIAN_POINT ( 'NONE',  ( 0.0000000000000000000, 0.0000000000000000000, 0.0000000000000000000 ) ) ;
#203 = FACE_OUTER_BOUND ( 'NONE', #176, .T. ) ;
#204 = ADVANCED_BREP_SHAPE_REPRESENTATION ( '57231', ( #220, #144, #205 ), #37 ) ;
#205 = AXIS2_PLACEMENT_3D ( 'NONE', #36, #222, #38 ) ;
#206 = PERSON_AND_ORGANIZATION ( #159, #115 ) ;
#207 = CLOSED_SHELL ( 'NONE', ( #114, #199, #117, #86, #136 ) ) ;
#208 = PRODUCT ( '57231', '57231', '', ( #35 ) ) ;
#209 = EDGE_LOOP ( 'NONE', ( #2 ) ) ;
#210 = CC_DESIGN_APPROVAL ( #101, ( #188 ) ) ;
#211 = COORDINATED_UNIVERSAL_TIME_OFFSET ( 1, 0, .AHEAD. ) ;
#212 = DATE_AND_TIME ( #5, #166 ) ;
#213 = APPROVAL_DATE_TIME ( #158, #54 ) ;
#214 = PLANE ( 'NONE',  #138 ) ;
#215 = AXIS2_PLACEMENT_3D ( 'NONE', #29, #95, #198 ) ;
#216 = FACE_OUTER_BOUND ( 'NONE', #137, .T. ) ;
#217 = DIRECTION ( 'NONE',  ( 3.491481338843133355E-15, -1.224646799147353207E-16, 1.000000000000000000 ) ) ;
#218 = CYLINDRICAL_SURFACE ( 'NONE', #131, 0.7500000000000006661 ) ;
#219 = CARTESIAN_POINT ( 'NONE',  ( 1.396592535537252711E-14, 0.0000000000000000000, 3.999999999999998224 ) ) ;
#220 = MANIFOLD_SOLID_BREP ( 'Corps-Déplacer/Copier1[1]', #207 ) ;
#221 = EDGE_CURVE ( 'NONE', #168, #168, #191, .T. ) ;
#222 = DIRECTION ( 'NONE',  ( 0.0000000000000000000, 0.0000000000000000000, 1.000000000000000000 ) ) ;
#223 = CARTESIAN_POINT ( 'NONE',  ( 1.396592535537252711E-14, -4.979984553763727249E-16, 3.999999999999998224 ) ) ;
ENDSEC;
END-ISO-10303-21;
