ISO-10303-21;
HEADER;
FILE_DESCRIPTION (( 'STEP AP203' ),
    '1' );
FILE_NAME ('57230.step',
    '2021-11-15T14:46:59',
    ( '' ),
    ( '' ),
    'SwSTEP 2.0',
    'SolidWorks 2019',
    '' );
FILE_SCHEMA (( 'CONFIG_CONTROL_DESIGN' ));
ENDSEC;

DATA;
#1 = DIRECTION ( 'NONE',  ( 4.275831445896958607E-31, 1.000000000000000000, 1.224646799147353207E-16 ) ) ;
#2 = ORIENTED_EDGE ( 'NONE', *, *, #174, .F. ) ;
#3 = FACE_OUTER_BOUND ( 'NONE', #205, .T. ) ;
#4 = FACE_BOUND ( 'NONE', #209, .T. ) ;
#5 = FACE_OUTER_BOUND ( 'NONE', #239, .T. ) ;
#6 =( NAMED_UNIT ( * ) PLANE_ANGLE_UNIT ( ) SI_UNIT ( $, .RADIAN. ) );
#7 = PERSON_AND_ORGANIZATION ( #179, #158 ) ;
#8 = VERTEX_POINT ( 'NONE', #180 ) ;
#9 = DIRECTION ( 'NONE',  ( 3.491481338843133355E-15, -1.224646799147353207E-16, 1.000000000000000000 ) ) ;
#10 = CC_DESIGN_SECURITY_CLASSIFICATION ( #122, ( #196 ) ) ;
#11 = CC_DESIGN_DATE_AND_TIME_ASSIGNMENT ( #112, #35, ( #122 ) ) ;
#12 = DATE_AND_TIME ( #36, #163 ) ;
#13 = PERSON_AND_ORGANIZATION ( #179, #158 ) ;
#14 = ADVANCED_FACE ( 'NONE', ( #114, #99 ), #26, .T. ) ;
#15 = COORDINATED_UNIVERSAL_TIME_OFFSET ( 1, 0, .AHEAD. ) ;
#16 = CC_DESIGN_APPROVAL ( #108, ( #25 ) ) ;
#17 = FACE_OUTER_BOUND ( 'NONE', #23, .T. ) ;
#18 = EDGE_LOOP ( 'NONE', ( #130 ) ) ;
#19 = CARTESIAN_POINT ( 'NONE',  ( 1.326762908760390423E-13, -4.653657836759941941E-15, 38.00000000000000000 ) ) ;
#20 = CARTESIAN_POINT ( 'NONE',  ( 1.047444401652940007E-14, 1.124819836996387048E-32, 3.000000000000000000 ) ) ;
#21 = EDGE_CURVE ( 'NONE', #88, #88, #167, .T. ) ;
#22 = DIRECTION ( 'NONE',  ( -3.491481338843133355E-15, 1.224646799147353207E-16, -1.000000000000000000 ) ) ;
#23 = EDGE_LOOP ( 'NONE', ( #171 ) ) ;
#24 = CARTESIAN_POINT ( 'NONE',  ( 1.047444401652940007E-14, 1.124819836996387048E-32, 3.000000000000000000 ) ) ;
#25 = PRODUCT_DEFINITION ( 'UNKNOWN', '', #196, #65 ) ;
#26 = CONICAL_SURFACE ( 'NONE', #124, 1.199999999999996403, 0.7853981633974461696 ) ;
#27 = ADVANCED_FACE ( 'NONE', ( #4, #77 ), #195, .T. ) ;
#28 = DIRECTION ( 'NONE',  ( -4.275831445896958607E-31, -1.000000000000000000, -1.224646799147353207E-16 ) ) ;
#29 = UNCERTAINTY_MEASURE_WITH_UNIT (LENGTH_MEASURE( 1.000000000000000082E-05 ), #164, 'distance_accuracy_value', 'NONE');
#30 = DIRECTION ( 'NONE',  ( 0.0000000000000000000, 1.000000000000000000, 0.0000000000000000000 ) ) ;
#31 = AXIS2_PLACEMENT_3D ( 'NONE', #194, #226, #80 ) ;
#32 = CARTESIAN_POINT ( 'NONE',  ( 0.0000000000000000000, 0.0000000000000000000, 0.0000000000000000000 ) ) ;
#33 = EDGE_CURVE ( 'NONE', #8, #8, #82, .T. ) ;
#34 = AXIS2_PLACEMENT_3D ( 'NONE', #190, #118, #240 ) ;
#35 = DATE_TIME_ROLE ( 'classification_date' ) ;
#36 = CALENDAR_DATE ( 2021, 15, 11 ) ;
#37 = APPROVAL_DATE_TIME ( #220, #108 ) ;
#38 = DIRECTION ( 'NONE',  ( -3.491481338843133355E-15, 1.224646799147353207E-16, -1.000000000000000000 ) ) ;
#39 = FACE_OUTER_BOUND ( 'NONE', #120, .T. ) ;
#40 = CIRCLE ( 'NONE', #214, 1.499999999999996669 ) ;
#41 = CARTESIAN_POINT ( 'NONE',  ( -6.413677916074933265E-31, 0.0000000000000000000, -1.836950363939232727E-16 ) ) ;
#42 = DIRECTION ( 'NONE',  ( 3.491481338843133355E-15, -1.243677319851284845E-16, 1.000000000000000000 ) ) ;
#43 = ORIENTED_EDGE ( 'NONE', *, *, #75, .T. ) ;
#44 = CARTESIAN_POINT ( 'NONE',  ( 2.442415424384780940E-14, -8.699965356162472620E-16, 6.995355802743743467 ) ) ;
#45 = VERTEX_POINT ( 'NONE', #142 ) ;
#46 = AXIS2_PLACEMENT_3D ( 'NONE', #81, #121, #188 ) ;
#47 = PRODUCT ( '57230', '57230', '', ( #123 ) ) ;
#48 = PERSON_AND_ORGANIZATION ( #179, #158 ) ;
#49 = CC_DESIGN_APPROVAL ( #189, ( #196 ) ) ;
#50 = CALENDAR_DATE ( 2021, 15, 11 ) ;
#51 = CC_DESIGN_DATE_AND_TIME_ASSIGNMENT ( #71, #106, ( #25 ) ) ;
#52 = COORDINATED_UNIVERSAL_TIME_OFFSET ( 1, 0, .AHEAD. ) ;
#53 = CIRCLE ( 'NONE', #134, 1.199999999999996403 ) ;
#54 = LOCAL_TIME ( 15, 46, 59.00000000000000000, #107 ) ;
#55 = PERSON_AND_ORGANIZATION ( #179, #158 ) ;
#56 = PERSON_AND_ORGANIZATION_ROLE ( 'design_supplier' ) ;
#57 = APPROVAL_STATUS ( 'not_yet_approved' ) ;
#58 = EDGE_LOOP ( 'NONE', ( #43 ) ) ;
#59 = CIRCLE ( 'NONE', #86, 0.4999999999999994449 ) ;
#60 = ADVANCED_FACE ( 'NONE', ( #3 ), #229, .F. ) ;
#61 = LOCAL_TIME ( 15, 46, 59.00000000000000000, #52 ) ;
#62 = DIRECTION ( 'NONE',  ( 0.0000000000000000000, -1.000000000000000000, 0.0000000000000000000 ) ) ;
#63 = DIRECTION ( 'NONE',  ( 3.491481338843133355E-15, -1.243677319851284845E-16, 1.000000000000000000 ) ) ;
#64 = PLANE ( 'NONE',  #67 ) ;
#65 = DESIGN_CONTEXT ( 'detailed design', #235, 'design' ) ;
#66 = DIRECTION ( 'NONE',  ( 0.0000000000000000000, 1.000000000000000000, 0.0000000000000000000 ) ) ;
#67 = AXIS2_PLACEMENT_3D ( 'NONE', #20, #84, #210 ) ;
#68 = PERSON_AND_ORGANIZATION_ROLE ( 'design_owner' ) ;
#69 = CC_DESIGN_PERSON_AND_ORGANIZATION_ASSIGNMENT ( #216, #56, ( #196 ) ) ;
#70 = DIRECTION ( 'NONE',  ( 0.0000000000000000000, 0.0000000000000000000, 1.000000000000000000 ) ) ;
#71 = DATE_AND_TIME ( #219, #61 ) ;
#72 = COORDINATED_UNIVERSAL_TIME_OFFSET ( 1, 0, .AHEAD. ) ;
#73 = AXIS2_PLACEMENT_3D ( 'NONE', #44, #224, #176 ) ;
#74 = APPROVAL_PERSON_ORGANIZATION ( #48, #108, #126 ) ;
#75 = EDGE_CURVE ( 'NONE', #45, #45, #40, .T. ) ;
#76 = ORIENTED_EDGE ( 'NONE', *, *, #153, .F. ) ;
#77 = FACE_OUTER_BOUND ( 'NONE', #223, .T. ) ;
#78 = ORIENTED_EDGE ( 'NONE', *, *, #96, .T. ) ;
#79 = ADVANCED_FACE ( 'NONE', ( #17, #225 ), #227, .F. ) ;
#80 = DIRECTION ( 'NONE',  ( 4.275831445896958607E-31, 1.000000000000000000, 1.224646799147353207E-16 ) ) ;
#81 = CARTESIAN_POINT ( 'NONE',  ( 3.745453999408934035E-14, -1.334143230206868351E-15, 10.72740661031272147 ) ) ;
#82 = CIRCLE ( 'NONE', #184, 0.4999999999999995559 ) ;
#83 = FACE_OUTER_BOUND ( 'NONE', #98, .T. ) ;
#84 = DIRECTION ( 'NONE',  ( 3.491481338843133355E-15, -1.224646799147353207E-16, 1.000000000000000000 ) ) ;
#85 = PLANE ( 'NONE',  #89 ) ;
#86 = AXIS2_PLACEMENT_3D ( 'NONE', #140, #157, #154 ) ;
#87 = VERTEX_POINT ( 'NONE', #215 ) ;
#88 = VERTEX_POINT ( 'NONE', #103 ) ;
#89 = AXIS2_PLACEMENT_3D ( 'NONE', #183, #9, #28 ) ;
#90 = APPROVAL_ROLE ( '' ) ;
#91 = CALENDAR_DATE ( 2021, 15, 11 ) ;
#92 = SECURITY_CLASSIFICATION_LEVEL ( 'unclassified' ) ;
#93 = ORIENTED_EDGE ( 'NONE', *, *, #230, .T. ) ;
#94 = DIRECTION ( 'NONE',  ( -4.401287919143780654E-31, -1.000000000000000000, -1.243677319851284845E-16 ) ) ;
#95 = AXIS2_PLACEMENT_3D ( 'NONE', #172, #63, #62 ) ;
#96 = EDGE_CURVE ( 'NONE', #87, #87, #111, .T. ) ;
#97 = DIRECTION ( 'NONE',  ( -3.491481338843133355E-15, 1.224646799147353207E-16, -1.000000000000000000 ) ) ;
#98 = EDGE_LOOP ( 'NONE', ( #138 ) ) ;
#99 = FACE_BOUND ( 'NONE', #152, .T. ) ;
#100 = DIRECTION ( 'NONE',  ( 0.0000000000000000000, 1.000000000000000000, 0.0000000000000000000 ) ) ;
#101 = DIRECTION ( 'NONE',  ( -4.342276153803203868E-31, -1.000000000000000000, -1.243677319851284845E-16 ) ) ;
#102 = CARTESIAN_POINT ( 'NONE',  ( 1.228176774875465645E-14, -0.5681483474218600449, 3.517638090205028600 ) ) ;
#103 = CARTESIAN_POINT ( 'NONE',  ( 1.047444401652939849E-14, -0.4999999999999997780, 2.999999999999999556 ) ) ;
#104 = AXIS2_PLACEMENT_3D ( 'NONE', #155, #129, #94 ) ;
#105 = APPROVAL_PERSON_ORGANIZATION ( #125, #189, #217 ) ;
#106 = DATE_TIME_ROLE ( 'creation_date' ) ;
#107 = COORDINATED_UNIVERSAL_TIME_OFFSET ( 1, 0, .AHEAD. ) ;
#108 = APPROVAL ( #110, 'UNSPECIFIED' ) ;
#109 = PERSON_AND_ORGANIZATION ( #179, #158 ) ;
#110 = APPROVAL_STATUS ( 'not_yet_approved' ) ;
#111 = CIRCLE ( 'NONE', #73, 1.499999999999994893 ) ;
#112 = DATE_AND_TIME ( #91, #241 ) ;
#113 = EDGE_LOOP ( 'NONE', ( #116 ) ) ;
#114 = FACE_OUTER_BOUND ( 'NONE', #113, .T. ) ;
#115 = FACE_OUTER_BOUND ( 'NONE', #18, .T. ) ;
#116 = ORIENTED_EDGE ( 'NONE', *, *, #75, .F. ) ;
#117 = AXIS2_PLACEMENT_3D ( 'NONE', #159, #97, #1 ) ;
#118 = DIRECTION ( 'NONE',  ( 3.491481338843133355E-15, -1.243677319851284845E-16, 1.000000000000000000 ) ) ;
#119 = DIRECTION ( 'NONE',  ( -3.491481338843133355E-15, 1.224646799147353207E-16, -1.000000000000000000 ) ) ;
#120 = EDGE_LOOP ( 'NONE', ( #76 ) ) ;
#121 = DIRECTION ( 'NONE',  ( 3.491481338843133355E-15, -1.243677319851284845E-16, 1.000000000000000000 ) ) ;
#122 = SECURITY_CLASSIFICATION ( '', '', #92 ) ;
#123 = MECHANICAL_CONTEXT ( 'NONE', #141, 'mechanical' ) ;
#124 = AXIS2_PLACEMENT_3D ( 'NONE', #208, #38, #100 ) ;
#125 = PERSON_AND_ORGANIZATION ( #179, #158 ) ;
#126 = APPROVAL_ROLE ( '' ) ;
#127 = CLOSED_SHELL ( 'NONE', ( #169, #213, #233 ) ) ;
#128 = ORIENTED_EDGE ( 'NONE', *, *, #174, .T. ) ;
#129 = DIRECTION ( 'NONE',  ( 3.491481338843133355E-15, -1.243677319851284845E-16, 1.000000000000000000 ) ) ;
#130 = ORIENTED_EDGE ( 'NONE', *, *, #33, .T. ) ;
#131 = FACE_OUTER_BOUND ( 'NONE', #58, .T. ) ;
#132 = CYLINDRICAL_SURFACE ( 'NONE', #218, 0.4999999999999995559 ) ;
#133 = APPROVAL ( #57, 'UNSPECIFIED' ) ;
#134 = AXIS2_PLACEMENT_3D ( 'NONE', #19, #22, #30 ) ;
#135 = ADVANCED_BREP_SHAPE_REPRESENTATION ( '57230', ( #156, #150, #222 ), #181 ) ;
#136 = APPROVAL_PERSON_ORGANIZATION ( #55, #133, #90 ) ;
#137 = CARTESIAN_POINT ( 'NONE',  ( 1.316288464743861212E-13, -4.616918432785521081E-15, 37.69999999999999574 ) ) ;
#138 = ORIENTED_EDGE ( 'NONE', *, *, #21, .T. ) ;
#139 = ADVANCED_FACE ( 'NONE', ( #131, #5 ), #206, .T. ) ;
#140 = CARTESIAN_POINT ( 'NONE',  ( 1.047444401652939849E-14, -3.731031959553854042E-16, 2.999999999999999556 ) ) ;
#141 = APPLICATION_CONTEXT ( 'configuration controlled 3d designs of mechanical parts and assemblies' ) ;
#142 = CARTESIAN_POINT ( 'NONE',  ( 1.316288464743861212E-13, 1.499999999999992228, 37.69999999999999574 ) ) ;
#143 = APPLICATION_PROTOCOL_DEFINITION ( 'international standard', 'config_control_design', 1994, #141 ) ;
#144 = DIRECTION ( 'NONE',  ( 1.000000000000000000, 0.0000000000000000000, 0.0000000000000000000 ) ) ;
#145 = CC_DESIGN_PERSON_AND_ORGANIZATION_ASSIGNMENT ( #149, #186, ( #25 ) ) ;
#146 = DATE_AND_TIME ( #50, #54 ) ;
#147 = COORDINATED_UNIVERSAL_TIME_OFFSET ( 1, 0, .AHEAD. ) ;
#148 = CC_DESIGN_PERSON_AND_ORGANIZATION_ASSIGNMENT ( #13, #170, ( #122 ) ) ;
#149 = PERSON_AND_ORGANIZATION ( #179, #158 ) ;
#150 = MANIFOLD_SOLID_BREP ( 'Corps-Déplacer/Copier1[2]', #127 ) ;
#151 = ORIENTED_EDGE ( 'NONE', *, *, #96, .F. ) ;
#152 = EDGE_LOOP ( 'NONE', ( #93 ) ) ;
#153 = EDGE_CURVE ( 'NONE', #165, #165, #59, .T. ) ;
#154 = DIRECTION ( 'NONE',  ( 0.0000000000000000000, -1.000000000000000000, 0.0000000000000000000 ) ) ;
#155 = CARTESIAN_POINT ( 'NONE',  ( 1.047444401652939849E-14, -4.336808689942017736E-16, 2.999999999999999556 ) ) ;
#156 = MANIFOLD_SOLID_BREP ( 'Corps-Déplacer/Copier1[1]', #162 ) ;
#157 = DIRECTION ( 'NONE',  ( 3.491481338843133355E-15, -1.243677319851284845E-16, 1.000000000000000000 ) ) ;
#158 = ORGANIZATION ( 'UNSPECIFIED', 'UNSPECIFIED', '' ) ;
#159 = CARTESIAN_POINT ( 'NONE',  ( 1.326762908760390423E-13, 8.998558695971051224E-33, 38.00000000000000000 ) ) ;
#160 = CARTESIAN_POINT ( 'NONE',  ( -2.171138076901601934E-31, -1.511206867367549611E-32, -6.218386599256424225E-17 ) ) ;
#161 = CARTESIAN_POINT ( 'NONE',  ( 1.326762908760390423E-13, 1.199999999999991962, 38.00000000000000000 ) ) ;
#162 = CLOSED_SHELL ( 'NONE', ( #139, #14, #60, #27, #79, #191 ) ) ;
#163 = LOCAL_TIME ( 15, 46, 59.00000000000000000, #147 ) ;
#164 =( LENGTH_UNIT ( ) NAMED_UNIT ( * ) SI_UNIT ( .MILLI., .METRE. ) );
#165 = VERTEX_POINT ( 'NONE', #182 ) ;
#166 =( NAMED_UNIT ( * ) SI_UNIT ( $, .STERADIAN. ) SOLID_ANGLE_UNIT ( ) );
#167 = CIRCLE ( 'NONE', #34, 0.4999999999999994449 ) ;
#168 = APPROVAL_STATUS ( 'not_yet_approved' ) ;
#169 = ADVANCED_FACE ( 'NONE', ( #83 ), #64, .T. ) ;
#170 = PERSON_AND_ORGANIZATION_ROLE ( 'classification_officer' ) ;
#171 = ORIENTED_EDGE ( 'NONE', *, *, #153, .T. ) ;
#172 = CARTESIAN_POINT ( 'NONE',  ( 1.228176774875465645E-14, -4.374806712232981811E-16, 3.517638090205028600 ) ) ;
#173 = ORIENTED_EDGE ( 'NONE', *, *, #21, .F. ) ;
#174 = EDGE_CURVE ( 'NONE', #197, #197, #200, .T. ) ;
#175 = DIRECTION ( 'NONE',  ( -4.342276153803203868E-31, -1.000000000000000000, -1.243677319851285338E-16 ) ) ;
#176 = DIRECTION ( 'NONE',  ( 0.0000000000000000000, -1.000000000000000000, 0.0000000000000000000 ) ) ;
#177 = CC_DESIGN_PERSON_AND_ORGANIZATION_ASSIGNMENT ( #7, #68, ( #47 ) ) ;
#178 = DIRECTION ( 'NONE',  ( 3.491481338843133355E-15, -1.224646799147353207E-16, 1.000000000000000000 ) ) ;
#179 = PERSON ( 'UNSPECIFIED', 'UNSPECIFIED', 'UNSPECIFIED', ('UNSPECIFIED'), ('UNSPECIFIED'), ('UNSPECIFIED') ) ;
#180 = CARTESIAN_POINT ( 'NONE',  ( -4.342276153803202116E-31, -0.4999999999999995559, -1.243677319851284352E-16 ) ) ;
#181 =( GEOMETRIC_REPRESENTATION_CONTEXT ( 3 ) GLOBAL_UNCERTAINTY_ASSIGNED_CONTEXT ( ( #29 ) ) GLOBAL_UNIT_ASSIGNED_CONTEXT ( ( #164, #6, #166 ) ) REPRESENTATION_CONTEXT ( 'NONE', 'WORKASPACE' ) );
#182 = CARTESIAN_POINT ( 'NONE',  ( 1.047444401652939849E-14, -0.4999999999999997780, 2.999999999999999556 ) ) ;
#183 = CARTESIAN_POINT ( 'NONE',  ( -8.551680453529350800E-31, 2.999525725151307090E-32, -2.449298628175645296E-16 ) ) ;
#184 = AXIS2_PLACEMENT_3D ( 'NONE', #160, #42, #101 ) ;
#185 = PERSON_AND_ORGANIZATION_ROLE ( 'creator' ) ;
#186 = PERSON_AND_ORGANIZATION_ROLE ( 'creator' ) ;
#187 = EDGE_LOOP ( 'NONE', ( #193 ) ) ;
#188 = DIRECTION ( 'NONE',  ( 0.0000000000000000000, -1.000000000000000000, 0.0000000000000000000 ) ) ;
#189 = APPROVAL ( #168, 'UNSPECIFIED' ) ;
#190 = CARTESIAN_POINT ( 'NONE',  ( 1.047444401652939849E-14, -3.731031959553854042E-16, 2.999999999999999556 ) ) ;
#191 = ADVANCED_FACE ( 'NONE', ( #39 ), #207, .F. ) ;
#192 = FACE_OUTER_BOUND ( 'NONE', #243, .T. ) ;
#193 = ORIENTED_EDGE ( 'NONE', *, *, #33, .F. ) ;
#194 = CARTESIAN_POINT ( 'NONE',  ( 0.0000000000000000000, 0.0000000000000000000, 0.0000000000000000000 ) ) ;
#195 = CONICAL_SURFACE ( 'NONE', #46, 2.499999999999995559, 0.2617993877991428575 ) ;
#196 = PRODUCT_DEFINITION_FORMATION_WITH_SPECIFIED_SOURCE ( 'ANY', '', #47, .NOT_KNOWN. ) ;
#197 = VERTEX_POINT ( 'NONE', #102 ) ;
#198 = FACE_OUTER_BOUND ( 'NONE', #187, .T. ) ;
#199 = VERTEX_POINT ( 'NONE', #161 ) ;
#200 = CIRCLE ( 'NONE', #95, 0.5681483474218596008 ) ;
#201 = APPROVAL_DATE_TIME ( #12, #189 ) ;
#202 = EDGE_LOOP ( 'NONE', ( #2 ) ) ;
#203 = DIRECTION ( 'NONE',  ( 3.491481338843133355E-15, -1.243677319851284845E-16, 1.000000000000000000 ) ) ;
#204 = CC_DESIGN_PERSON_AND_ORGANIZATION_ASSIGNMENT ( #109, #185, ( #196 ) ) ;
#205 = EDGE_LOOP ( 'NONE', ( #221 ) ) ;
#206 = CYLINDRICAL_SURFACE ( 'NONE', #31, 1.499999999999994893 ) ;
#207 = PLANE ( 'NONE',  #232 ) ;
#208 = CARTESIAN_POINT ( 'NONE',  ( 1.326762908760390423E-13, -4.653657836759941941E-15, 38.00000000000000000 ) ) ;
#209 = EDGE_LOOP ( 'NONE', ( #128 ) ) ;
#210 = DIRECTION ( 'NONE',  ( -4.275831445896958607E-31, -1.000000000000000000, -1.224646799147353207E-16 ) ) ;
#211 = PRODUCT_RELATED_PRODUCT_CATEGORY ( 'detail', '', ( #47 ) ) ;
#212 = APPLICATION_PROTOCOL_DEFINITION ( 'international standard', 'config_control_design', 1994, #235 ) ;
#213 = ADVANCED_FACE ( 'NONE', ( #115, #192 ), #132, .T. ) ;
#214 = AXIS2_PLACEMENT_3D ( 'NONE', #137, #119, #66 ) ;
#215 = CARTESIAN_POINT ( 'NONE',  ( 2.442415424384780940E-14, -1.499999999999995781, 6.995355802743743467 ) ) ;
#216 = PERSON_AND_ORGANIZATION ( #179, #158 ) ;
#217 = APPROVAL_ROLE ( '' ) ;
#218 = AXIS2_PLACEMENT_3D ( 'NONE', #41, #203, #175 ) ;
#219 = CALENDAR_DATE ( 2021, 15, 11 ) ;
#220 = DATE_AND_TIME ( #234, #238 ) ;
#221 = ORIENTED_EDGE ( 'NONE', *, *, #230, .F. ) ;
#222 = AXIS2_PLACEMENT_3D ( 'NONE', #32, #70, #144 ) ;
#223 = EDGE_LOOP ( 'NONE', ( #78 ) ) ;
#224 = DIRECTION ( 'NONE',  ( -3.491481338843133355E-15, 1.243677319851284845E-16, -1.000000000000000000 ) ) ;
#225 = FACE_OUTER_BOUND ( 'NONE', #202, .T. ) ;
#226 = DIRECTION ( 'NONE',  ( -3.491481338843133355E-15, 1.224646799147353207E-16, -1.000000000000000000 ) ) ;
#227 = TOROIDAL_SURFACE ( 'NONE', #104, 2.499999999999999556, 2.000000000000000000 ) ;
#228 = CC_DESIGN_APPROVAL ( #133, ( #122 ) ) ;
#229 = PLANE ( 'NONE',  #117 ) ;
#230 = EDGE_CURVE ( 'NONE', #199, #199, #53, .T. ) ;
#231 = DIRECTION ( 'NONE',  ( -4.275831445896958607E-31, -1.000000000000000000, -1.224646799147353207E-16 ) ) ;
#232 = AXIS2_PLACEMENT_3D ( 'NONE', #24, #178, #231 ) ;
#233 = ADVANCED_FACE ( 'NONE', ( #198 ), #85, .F. ) ;
#234 = CALENDAR_DATE ( 2021, 15, 11 ) ;
#235 = APPLICATION_CONTEXT ( 'configuration controlled 3d designs of mechanical parts and assemblies' ) ;
#236 = APPROVAL_DATE_TIME ( #146, #133 ) ;
#237 = SHAPE_DEFINITION_REPRESENTATION ( #242, #135 ) ;
#238 = LOCAL_TIME ( 15, 46, 59.00000000000000000, #72 ) ;
#239 = EDGE_LOOP ( 'NONE', ( #151 ) ) ;
#240 = DIRECTION ( 'NONE',  ( 0.0000000000000000000, -1.000000000000000000, 0.0000000000000000000 ) ) ;
#241 = LOCAL_TIME ( 15, 46, 59.00000000000000000, #15 ) ;
#242 = PRODUCT_DEFINITION_SHAPE ( 'NONE', 'NONE',  #25 ) ;
#243 = EDGE_LOOP ( 'NONE', ( #173 ) ) ;
ENDSEC;
END-ISO-10303-21;
