ISO-10303-21;
HEADER;
FILE_DESCRIPTION (( 'STEP AP203' ),
    '1' );
FILE_NAME ('57229.step',
    '2021-11-01T12:23:42',
    ( '' ),
    ( '' ),
    'SwSTEP 2.0',
    'SolidWorks 2019',
    '' );
FILE_SCHEMA (( 'CONFIG_CONTROL_DESIGN' ));
ENDSEC;

DATA;
#1 = DIRECTION ( 'NONE',  ( 3.491481338843133355E-15, -1.224646799147353454E-16, 1.000000000000000000 ) ) ;
#2 = DIRECTION ( 'NONE',  ( -3.491481338843133355E-15, 1.224646799147353454E-16, -1.000000000000000000 ) ) ;
#3 = CIRCLE ( 'NONE', #20, 9.800000000000000711 ) ;
#4 = DIRECTION ( 'NONE',  ( 3.491481338843133355E-15, -1.226656096638776648E-16, 1.000000000000000000 ) ) ;
#5 = AXIS2_PLACEMENT_3D ( 'NONE', #135, #85, #221 ) ;
#6 = FACE_OUTER_BOUND ( 'NONE', #48, .T. ) ;
#7 = AXIS2_PLACEMENT_3D ( 'NONE', #197, #159, #39 ) ;
#8 = ADVANCED_BREP_SHAPE_REPRESENTATION ( '57229', ( #223, #147, #163 ), #162 ) ;
#9 = ORIENTED_EDGE ( 'NONE', *, *, #145, .F. ) ;
#10 = DATE_AND_TIME ( #30, #40 ) ;
#11 = APPROVAL ( #70, 'UNSPECIFIED' ) ;
#12 = PERSON_AND_ORGANIZATION_ROLE ( 'creator' ) ;
#13 =( NAMED_UNIT ( * ) SI_UNIT ( $, .STERADIAN. ) SOLID_ANGLE_UNIT ( ) );
#14 = DATE_AND_TIME ( #96, #114 ) ;
#15 = CALENDAR_DATE ( 2021, 1, 11 ) ;
#16 = MECHANICAL_CONTEXT ( 'NONE', #205, 'mechanical' ) ;
#17 = PLANE ( 'NONE',  #118 ) ;
#18 = CC_DESIGN_PERSON_AND_ORGANIZATION_ASSIGNMENT ( #66, #61, ( #180 ) ) ;
#19 = FACE_OUTER_BOUND ( 'NONE', #190, .T. ) ;
#20 = AXIS2_PLACEMENT_3D ( 'NONE', #105, #4, #175 ) ;
#21 = DIRECTION ( 'NONE',  ( 4.275831445896960358E-31, 1.000000000000000000, 1.224646799147353454E-16 ) ) ;
#22 = DIRECTION ( 'NONE',  ( -4.237045877651918877E-31, -1.000000000000000000, -1.219727444046192488E-16 ) ) ;
#23 = LOCAL_TIME ( 13, 23, 42.00000000000000000, #27 ) ;
#24 = CARTESIAN_POINT ( 'NONE',  ( 1.117274028429802674E-13, 9.999999999999987566, 32.00000000000000000 ) ) ;
#25 = DIRECTION ( 'NONE',  ( 3.491481338843133355E-15, -1.226656096638776648E-16, 1.000000000000000000 ) ) ;
#26 = APPROVAL_DATE_TIME ( #189, #42 ) ;
#27 = COORDINATED_UNIVERSAL_TIME_OFFSET ( 1, 0, .AHEAD. ) ;
#28 =( NAMED_UNIT ( * ) PLANE_ANGLE_UNIT ( ) SI_UNIT ( $, .RADIAN. ) );
#29 = CIRCLE ( 'NONE', #56, 10.00000000000000000 ) ;
#30 = CALENDAR_DATE ( 2021, 1, 11 ) ;
#31 = PERSON_AND_ORGANIZATION ( #35, #153 ) ;
#32 = PERSON_AND_ORGANIZATION ( #35, #153 ) ;
#33 = CARTESIAN_POINT ( 'NONE',  ( 0.0000000000000000000, 0.0000000000000000000, 0.0000000000000000000 ) ) ;
#34 = DIRECTION ( 'NONE',  ( -3.491481338843133355E-15, 1.224646799147353454E-16, -1.000000000000000000 ) ) ;
#35 = PERSON ( 'UNSPECIFIED', 'UNSPECIFIED', 'UNSPECIFIED', ('UNSPECIFIED'), ('UNSPECIFIED'), ('UNSPECIFIED') ) ;
#36 = ADVANCED_FACE ( 'NONE', ( #170 ), #87, .F. ) ;
#37 = AXIS2_PLACEMENT_3D ( 'NONE', #62, #121, #22 ) ;
#38 = APPROVAL_PERSON_ORGANIZATION ( #155, #211, #217 ) ;
#39 = DIRECTION ( 'NONE',  ( 0.0000000000000000000, 1.000000000000000000, 0.0000000000000000000 ) ) ;
#40 = LOCAL_TIME ( 13, 23, 42.00000000000000000, #219 ) ;
#41 = CARTESIAN_POINT ( 'NONE',  ( 1.117274028429802674E-13, 9.999999999999987566, 32.00000000000000000 ) ) ;
#42 = APPROVAL ( #132, 'UNSPECIFIED' ) ;
#43 = DIRECTION ( 'NONE',  ( 3.491481338843133355E-15, -1.224646799147353454E-16, 1.000000000000000000 ) ) ;
#44 = APPROVAL_ROLE ( '' ) ;
#45 = EDGE_LOOP ( 'NONE', ( #111 ) ) ;
#46 = EDGE_LOOP ( 'NONE', ( #84 ) ) ;
#47 = PERSON_AND_ORGANIZATION ( #35, #153 ) ;
#48 = EDGE_LOOP ( 'NONE', ( #67 ) ) ;
#49 = CIRCLE ( 'NONE', #64, 9.500000000000000000 ) ;
#50 = PERSON_AND_ORGANIZATION ( #35, #153 ) ;
#51 = ORIENTED_EDGE ( 'NONE', *, *, #181, .T. ) ;
#52 = DATE_TIME_ROLE ( 'creation_date' ) ;
#53 = DIRECTION ( 'NONE',  ( 0.0000000000000000000, 0.0000000000000000000, 1.000000000000000000 ) ) ;
#54 = DIRECTION ( 'NONE',  ( -3.491481338843133355E-15, 1.224646799147353454E-16, -1.000000000000000000 ) ) ;
#55 = DIRECTION ( 'NONE',  ( -4.275831445896959482E-31, -1.000000000000000000, -1.224646799147353454E-16 ) ) ;
#56 = AXIS2_PLACEMENT_3D ( 'NONE', #76, #25, #122 ) ;
#57 = PLANE ( 'NONE',  #134 ) ;
#58 = DIRECTION ( 'NONE',  ( 4.275831445896959482E-31, 1.000000000000000000, 1.224646799147353454E-16 ) ) ;
#59 = FACE_BOUND ( 'NONE', #46, .T. ) ;
#60 = PRODUCT_DEFINITION_FORMATION_WITH_SPECIFIED_SOURCE ( 'ANY', '', #180, .NOT_KNOWN. ) ;
#61 = PERSON_AND_ORGANIZATION_ROLE ( 'design_owner' ) ;
#62 = CARTESIAN_POINT ( 'NONE',  ( 6.982962677686229240E-16, -2.453312193277542695E-17, 0.1999999999999989286 ) ) ;
#63 = VERTEX_POINT ( 'NONE', #142 ) ;
#64 = AXIS2_PLACEMENT_3D ( 'NONE', #117, #120, #177 ) ;
#65 = CARTESIAN_POINT ( 'NONE',  ( 1.117274028429802674E-13, 7.498798913309280376E-32, 32.00000000000000000 ) ) ;
#66 = PERSON_AND_ORGANIZATION ( #35, #153 ) ;
#67 = ORIENTED_EDGE ( 'NONE', *, *, #215, .T. ) ;
#68 = ORIENTED_EDGE ( 'NONE', *, *, #198, .T. ) ;
#69 = CC_DESIGN_APPROVAL ( #42, ( #60 ) ) ;
#70 = APPROVAL_STATUS ( 'not_yet_approved' ) ;
#71 = ADVANCED_FACE ( 'NONE', ( #88, #137 ), #192, .T. ) ;
#72 = DIRECTION ( 'NONE',  ( -4.275831445896959482E-31, -1.000000000000000000, -1.224646799147353454E-16 ) ) ;
#73 = SHAPE_DEFINITION_REPRESENTATION ( #116, #8 ) ;
#74 = CIRCLE ( 'NONE', #7, 9.999999999999991118 ) ;
#75 = EDGE_CURVE ( 'NONE', #63, #63, #3, .T. ) ;
#76 = CARTESIAN_POINT ( 'NONE',  ( 6.982962677686229240E-16, -2.453312193277542695E-17, 0.1999999999999989286 ) ) ;
#77 = AXIS2_PLACEMENT_3D ( 'NONE', #158, #2, #193 ) ;
#78 = EDGE_CURVE ( 'NONE', #126, #126, #49, .T. ) ;
#79 = CLOSED_SHELL ( 'NONE', ( #212, #109, #95, #36 ) ) ;
#80 = VERTEX_POINT ( 'NONE', #91 ) ;
#81 = EDGE_LOOP ( 'NONE', ( #51 ) ) ;
#82 = APPROVAL_STATUS ( 'not_yet_approved' ) ;
#83 = DATE_AND_TIME ( #15, #119 ) ;
#84 = ORIENTED_EDGE ( 'NONE', *, *, #78, .T. ) ;
#85 = DIRECTION ( 'NONE',  ( -3.491481338843133355E-15, 1.224646799147353454E-16, -1.000000000000000000 ) ) ;
#86 = CARTESIAN_POINT ( 'NONE',  ( 1.117274028429802674E-13, 7.498798913309280376E-32, 32.00000000000000000 ) ) ;
#87 = PLANE ( 'NONE',  #77 ) ;
#88 = FACE_OUTER_BOUND ( 'NONE', #45, .T. ) ;
#89 = CARTESIAN_POINT ( 'NONE',  ( 3.631140592396858689E-13, 9.499999999999987566, 104.0000000000000000 ) ) ;
#90 = CC_DESIGN_PERSON_AND_ORGANIZATION_ASSIGNMENT ( #32, #101, ( #60 ) ) ;
#91 = CARTESIAN_POINT ( 'NONE',  ( 6.982962677686186838E-16, -10.00000000000000000, 0.1999999999999977074 ) ) ;
#92 =( LENGTH_UNIT ( ) NAMED_UNIT ( * ) SI_UNIT ( .MILLI., .METRE. ) );
#93 = CC_DESIGN_DATE_AND_TIME_ASSIGNMENT ( #83, #202, ( #194 ) ) ;
#94 = CC_DESIGN_APPROVAL ( #11, ( #194 ) ) ;
#95 = ADVANCED_FACE ( 'NONE', ( #139, #59 ), #103, .T. ) ;
#96 = CALENDAR_DATE ( 2021, 1, 11 ) ;
#97 = UNCERTAINTY_MEASURE_WITH_UNIT (LENGTH_MEASURE( 1.000000000000000082E-05 ), #92, 'distance_accuracy_value', 'NONE');
#98 = CALENDAR_DATE ( 2021, 1, 11 ) ;
#99 = AXIS2_PLACEMENT_3D ( 'NONE', #154, #106, #21 ) ;
#100 = EDGE_LOOP ( 'NONE', ( #68 ) ) ;
#101 = PERSON_AND_ORGANIZATION_ROLE ( 'design_supplier' ) ;
#102 = CARTESIAN_POINT ( 'NONE',  ( -1.924128069121287657E-30, 6.748932766112746306E-32, -5.510921819100507160E-16 ) ) ;
#103 = CONICAL_SURFACE ( 'NONE', #5, 9.500000000000000000, 0.7853981633974344012 ) ;
#104 = FACE_OUTER_BOUND ( 'NONE', #185, .T. ) ;
#105 = CARTESIAN_POINT ( 'NONE',  ( -4.197189933180599807E-30, 1.208602834858988389E-31, -1.202122974706001356E-15 ) ) ;
#106 = DIRECTION ( 'NONE',  ( -3.491481338843133355E-15, 1.224646799147353454E-16, -1.000000000000000000 ) ) ;
#107 = AXIS2_PLACEMENT_3D ( 'NONE', #157, #54, #204 ) ;
#108 = DIRECTION ( 'NONE',  ( -4.275831445896959482E-31, -1.000000000000000000, -1.224646799147353454E-16 ) ) ;
#109 = ADVANCED_FACE ( 'NONE', ( #178, #207 ), #138, .T. ) ;
#110 = CALENDAR_DATE ( 2021, 1, 11 ) ;
#111 = ORIENTED_EDGE ( 'NONE', *, *, #145, .T. ) ;
#112 = PERSON_AND_ORGANIZATION_ROLE ( 'creator' ) ;
#113 = PERSON_AND_ORGANIZATION ( #35, #153 ) ;
#114 = LOCAL_TIME ( 13, 23, 42.00000000000000000, #128 ) ;
#115 = PERSON_AND_ORGANIZATION_ROLE ( 'classification_officer' ) ;
#116 = PRODUCT_DEFINITION_SHAPE ( 'NONE', 'NONE',  #176 ) ;
#117 = CARTESIAN_POINT ( 'NONE',  ( 3.631140592396858689E-13, -1.273632671113247592E-14, 104.0000000000000000 ) ) ;
#118 = AXIS2_PLACEMENT_3D ( 'NONE', #86, #1, #55 ) ;
#119 = LOCAL_TIME ( 13, 23, 42.00000000000000000, #171 ) ;
#120 = DIRECTION ( 'NONE',  ( -3.491481338843133355E-15, 1.224646799147353454E-16, -1.000000000000000000 ) ) ;
#121 = DIRECTION ( 'NONE',  ( 3.491481338843133355E-15, -1.226656096638776648E-16, 1.000000000000000000 ) ) ;
#122 = DIRECTION ( 'NONE',  ( -4.237045877651918877E-31, -1.000000000000000000, -1.219727444046192488E-16 ) ) ;
#123 = VERTEX_POINT ( 'NONE', #41 ) ;
#124 = FACE_BOUND ( 'NONE', #130, .T. ) ;
#125 = CC_DESIGN_PERSON_AND_ORGANIZATION_ASSIGNMENT ( #50, #112, ( #176 ) ) ;
#126 = VERTEX_POINT ( 'NONE', #89 ) ;
#127 = ADVANCED_FACE ( 'NONE', ( #19 ), #57, .F. ) ;
#128 = COORDINATED_UNIVERSAL_TIME_OFFSET ( 1, 0, .AHEAD. ) ;
#129 = CIRCLE ( 'NONE', #107, 9.999999999999991118 ) ;
#130 = EDGE_LOOP ( 'NONE', ( #214 ) ) ;
#131 = EDGE_LOOP ( 'NONE', ( #199 ) ) ;
#132 = APPROVAL_STATUS ( 'not_yet_approved' ) ;
#133 = CC_DESIGN_PERSON_AND_ORGANIZATION_ASSIGNMENT ( #31, #12, ( #60 ) ) ;
#134 = AXIS2_PLACEMENT_3D ( 'NONE', #102, #172, #72 ) ;
#135 = CARTESIAN_POINT ( 'NONE',  ( 3.631140592396858689E-13, -1.273632671113247592E-14, 104.0000000000000000 ) ) ;
#136 = APPLICATION_CONTEXT ( 'configuration controlled 3d designs of mechanical parts and assemblies' ) ;
#137 = FACE_OUTER_BOUND ( 'NONE', #100, .T. ) ;
#138 = CYLINDRICAL_SURFACE ( 'NONE', #200, 9.999999999999994671 ) ;
#139 = FACE_OUTER_BOUND ( 'NONE', #164, .T. ) ;
#140 = VERTEX_POINT ( 'NONE', #195 ) ;
#141 = DIRECTION ( 'NONE',  ( -3.491481338843133355E-15, 1.224646799147353454E-16, -1.000000000000000000 ) ) ;
#142 = CARTESIAN_POINT ( 'NONE',  ( -8.394379866361199614E-30, -9.800000000000000711, -2.404245949412002713E-15 ) ) ;
#143 = AXIS2_PLACEMENT_3D ( 'NONE', #210, #141, #161 ) ;
#144 = VERTEX_POINT ( 'NONE', #24 ) ;
#145 = EDGE_CURVE ( 'NONE', #144, #144, #129, .T. ) ;
#146 = ORIENTED_EDGE ( 'NONE', *, *, #215, .F. ) ;
#147 = MANIFOLD_SOLID_BREP ( 'Corps-Déplacer/Copier1[2]', #152 ) ;
#148 = ORIENTED_EDGE ( 'NONE', *, *, #75, .F. ) ;
#149 = DATE_AND_TIME ( #98, #23 ) ;
#150 = EDGE_LOOP ( 'NONE', ( #146 ) ) ;
#151 = COORDINATED_UNIVERSAL_TIME_OFFSET ( 1, 0, .AHEAD. ) ;
#152 = CLOSED_SHELL ( 'NONE', ( #71, #166, #188, #127 ) ) ;
#153 = ORGANIZATION ( 'UNSPECIFIED', 'UNSPECIFIED', '' ) ;
#154 = CARTESIAN_POINT ( 'NONE',  ( 0.0000000000000000000, 0.0000000000000000000, 0.0000000000000000000 ) ) ;
#155 = PERSON_AND_ORGANIZATION ( #35, #153 ) ;
#156 = CC_DESIGN_PERSON_AND_ORGANIZATION_ASSIGNMENT ( #47, #115, ( #194 ) ) ;
#157 = CARTESIAN_POINT ( 'NONE',  ( 1.117274028429802674E-13, -3.918869757271531052E-15, 32.00000000000000000 ) ) ;
#158 = CARTESIAN_POINT ( 'NONE',  ( 3.631140592396858689E-13, 7.123858967643808858E-32, 104.0000000000000000 ) ) ;
#159 = DIRECTION ( 'NONE',  ( -3.491481338843133355E-15, 1.224646799147353454E-16, -1.000000000000000000 ) ) ;
#160 = CC_DESIGN_SECURITY_CLASSIFICATION ( #194, ( #60 ) ) ;
#161 = DIRECTION ( 'NONE',  ( 0.0000000000000000000, 1.000000000000000000, 0.0000000000000000000 ) ) ;
#162 =( GEOMETRIC_REPRESENTATION_CONTEXT ( 3 ) GLOBAL_UNCERTAINTY_ASSIGNED_CONTEXT ( ( #97 ) ) GLOBAL_UNIT_ASSIGNED_CONTEXT ( ( #92, #28, #13 ) ) REPRESENTATION_CONTEXT ( 'NONE', 'WORKASPACE' ) );
#163 = AXIS2_PLACEMENT_3D ( 'NONE', #33, #53, #191 ) ;
#164 = EDGE_LOOP ( 'NONE', ( #203 ) ) ;
#165 = APPROVAL_ROLE ( '' ) ;
#166 = ADVANCED_FACE ( 'NONE', ( #104 ), #17, .T. ) ;
#167 = DESIGN_CONTEXT ( 'detailed design', #136, 'design' ) ;
#168 = CONICAL_SURFACE ( 'NONE', #37, 10.00000000000000000, 0.7853981633974449483 ) ;
#169 = APPROVAL_PERSON_ORGANIZATION ( #113, #11, #165 ) ;
#170 = FACE_OUTER_BOUND ( 'NONE', #218, .T. ) ;
#171 = COORDINATED_UNIVERSAL_TIME_OFFSET ( 1, 0, .AHEAD. ) ;
#172 = DIRECTION ( 'NONE',  ( 3.491481338843133355E-15, -1.224646799147353454E-16, 1.000000000000000000 ) ) ;
#173 = APPLICATION_PROTOCOL_DEFINITION ( 'international standard', 'config_control_design', 1994, #136 ) ;
#174 = APPLICATION_PROTOCOL_DEFINITION ( 'international standard', 'config_control_design', 1994, #205 ) ;
#175 = DIRECTION ( 'NONE',  ( -4.282846870592448247E-31, -1.000000000000000000, -1.226656096638776894E-16 ) ) ;
#176 = PRODUCT_DEFINITION ( 'UNKNOWN', '', #60, #167 ) ;
#177 = DIRECTION ( 'NONE',  ( 0.0000000000000000000, 1.000000000000000000, 0.0000000000000000000 ) ) ;
#178 = FACE_OUTER_BOUND ( 'NONE', #150, .T. ) ;
#179 = CC_DESIGN_DATE_AND_TIME_ASSIGNMENT ( #14, #52, ( #176 ) ) ;
#180 = PRODUCT ( '57229', '57229', '', ( #16 ) ) ;
#181 = EDGE_CURVE ( 'NONE', #140, #140, #213, .T. ) ;
#182 = FACE_OUTER_BOUND ( 'NONE', #131, .T. ) ;
#183 = CC_DESIGN_APPROVAL ( #211, ( #176 ) ) ;
#184 = PERSON_AND_ORGANIZATION ( #35, #153 ) ;
#185 = EDGE_LOOP ( 'NONE', ( #9 ) ) ;
#186 = APPROVAL_DATE_TIME ( #149, #11 ) ;
#187 = AXIS2_PLACEMENT_3D ( 'NONE', #65, #43, #108 ) ;
#188 = ADVANCED_FACE ( 'NONE', ( #124, #182 ), #168, .T. ) ;
#189 = DATE_AND_TIME ( #110, #216 ) ;
#190 = EDGE_LOOP ( 'NONE', ( #148 ) ) ;
#191 = DIRECTION ( 'NONE',  ( 1.000000000000000000, 0.0000000000000000000, 0.0000000000000000000 ) ) ;
#192 = CYLINDRICAL_SURFACE ( 'NONE', #99, 9.999999999999989342 ) ;
#193 = DIRECTION ( 'NONE',  ( 4.275831445896959482E-31, 1.000000000000000000, 1.224646799147353454E-16 ) ) ;
#194 = SECURITY_CLASSIFICATION ( '', '', #220 ) ;
#195 = CARTESIAN_POINT ( 'NONE',  ( 3.613683185702642581E-13, 9.999999999999987566, 103.4999999999999858 ) ) ;
#196 = PLANE ( 'NONE',  #187 ) ;
#197 = CARTESIAN_POINT ( 'NONE',  ( 1.117274028429802674E-13, -3.918869757271531052E-15, 32.00000000000000000 ) ) ;
#198 = EDGE_CURVE ( 'NONE', #80, #80, #29, .T. ) ;
#199 = ORIENTED_EDGE ( 'NONE', *, *, #198, .F. ) ;
#200 = AXIS2_PLACEMENT_3D ( 'NONE', #208, #34, #58 ) ;
#201 = ORIENTED_EDGE ( 'NONE', *, *, #78, .F. ) ;
#202 = DATE_TIME_ROLE ( 'classification_date' ) ;
#203 = ORIENTED_EDGE ( 'NONE', *, *, #181, .F. ) ;
#204 = DIRECTION ( 'NONE',  ( 0.0000000000000000000, 1.000000000000000000, 0.0000000000000000000 ) ) ;
#205 = APPLICATION_CONTEXT ( 'configuration controlled 3d designs of mechanical parts and assemblies' ) ;
#206 = APPROVAL_PERSON_ORGANIZATION ( #184, #42, #44 ) ;
#207 = FACE_OUTER_BOUND ( 'NONE', #81, .T. ) ;
#208 = CARTESIAN_POINT ( 'NONE',  ( 0.0000000000000000000, 0.0000000000000000000, 0.0000000000000000000 ) ) ;
#209 = PRODUCT_RELATED_PRODUCT_CATEGORY ( 'detail', '', ( #180 ) ) ;
#210 = CARTESIAN_POINT ( 'NONE',  ( 3.613683185702642581E-13, -1.267509437117510519E-14, 103.4999999999999858 ) ) ;
#211 = APPROVAL ( #82, 'UNSPECIFIED' ) ;
#212 = ADVANCED_FACE ( 'NONE', ( #6 ), #196, .F. ) ;
#213 = CIRCLE ( 'NONE', #143, 10.00000000000000000 ) ;
#214 = ORIENTED_EDGE ( 'NONE', *, *, #75, .T. ) ;
#215 = EDGE_CURVE ( 'NONE', #123, #123, #74, .T. ) ;
#216 = LOCAL_TIME ( 13, 23, 42.00000000000000000, #151 ) ;
#217 = APPROVAL_ROLE ( '' ) ;
#218 = EDGE_LOOP ( 'NONE', ( #201 ) ) ;
#219 = COORDINATED_UNIVERSAL_TIME_OFFSET ( 1, 0, .AHEAD. ) ;
#220 = SECURITY_CLASSIFICATION_LEVEL ( 'unclassified' ) ;
#221 = DIRECTION ( 'NONE',  ( 0.0000000000000000000, 1.000000000000000000, 0.0000000000000000000 ) ) ;
#222 = APPROVAL_DATE_TIME ( #10, #211 ) ;
#223 = MANIFOLD_SOLID_BREP ( 'Corps-Déplacer/Copier1[1]', #79 ) ;
ENDSEC;
END-ISO-10303-21;
