ISO-10303-21;
HEADER;
FILE_DESCRIPTION (( 'STEP AP203' ),
    '1' );
FILE_NAME ('57226.step',
    '2021-11-01T12:23:40',
    ( '' ),
    ( '' ),
    'SwSTEP 2.0',
    'SolidWorks 2019',
    '' );
FILE_SCHEMA (( 'CONFIG_CONTROL_DESIGN' ));
ENDSEC;

DATA;
#1 = AXIS2_PLACEMENT_3D ( 'NONE', #42, #104, #174 ) ;
#2 = APPROVAL_PERSON_ORGANIZATION ( #183, #208, #198 ) ;
#3 = CONICAL_SURFACE ( 'NONE', #27, 7.500000000000000888, 0.7853981633974473908 ) ;
#4 = APPLICATION_PROTOCOL_DEFINITION ( 'international standard', 'config_control_design', 1994, #124 ) ;
#5 = COORDINATED_UNIVERSAL_TIME_OFFSET ( 1, 0, .AHEAD. ) ;
#6 = AXIS2_PLACEMENT_3D ( 'NONE', #87, #110, #160 ) ;
#7 = FACE_OUTER_BOUND ( 'NONE', #135, .T. ) ;
#8 = ORIENTED_EDGE ( 'NONE', *, *, #55, .T. ) ;
#9 = CARTESIAN_POINT ( 'NONE',  ( -3.340620559062109808E-30, 9.076657989747723686E-32, -9.567917553782459775E-16 ) ) ;
#10 = DIRECTION ( 'NONE',  ( -3.491481338843133355E-15, 1.224646799147353207E-16, -1.000000000000000000 ) ) ;
#11 = EDGE_LOOP ( 'NONE', ( #180 ) ) ;
#12 = COORDINATED_UNIVERSAL_TIME_OFFSET ( 1, 0, .AHEAD. ) ;
#13 = PLANE ( 'NONE',  #132 ) ;
#14 = AXIS2_PLACEMENT_3D ( 'NONE', #9, #170, #49 ) ;
#15 = LOCAL_TIME ( 13, 23, 40.00000000000000000, #12 ) ;
#16 = VERTEX_POINT ( 'NONE', #172 ) ;
#17 = AXIS2_PLACEMENT_3D ( 'NONE', #214, #82, #152 ) ;
#18 = APPROVAL_PERSON_ORGANIZATION ( #192, #91, #154 ) ;
#19 =( NAMED_UNIT ( * ) PLANE_ANGLE_UNIT ( ) SI_UNIT ( $, .RADIAN. ) );
#20 = CIRCLE ( 'NONE', #14, 7.800000000000002487 ) ;
#21 = DIRECTION ( 'NONE',  ( 0.0000000000000000000, 1.000000000000000000, 0.0000000000000000000 ) ) ;
#22 = AXIS2_PLACEMENT_3D ( 'NONE', #173, #203, #66 ) ;
#23 = PERSON ( 'UNSPECIFIED', 'UNSPECIFIED', 'UNSPECIFIED', ('UNSPECIFIED'), ('UNSPECIFIED'), ('UNSPECIFIED') ) ;
#24 = PERSON_AND_ORGANIZATION ( #23, #140 ) ;
#25 = ADVANCED_FACE ( 'NONE', ( #195 ), #117, .F. ) ;
#26 = ORIENTED_EDGE ( 'NONE', *, *, #159, .F. ) ;
#27 = AXIS2_PLACEMENT_3D ( 'NONE', #46, #188, #202 ) ;
#28 = DATE_TIME_ROLE ( 'classification_date' ) ;
#29 = CARTESIAN_POINT ( 'NONE',  ( 9.077851480992146724E-14, 5.999039130647421673E-32, 26.00000000000000000 ) ) ;
#30 = VERTEX_POINT ( 'NONE', #147 ) ;
#31 = CONICAL_SURFACE ( 'NONE', #6, 8.000000000000000000, 0.7853981633974428389 ) ;
#32 = APPROVAL ( #53, 'UNSPECIFIED' ) ;
#33 = AXIS2_PLACEMENT_3D ( 'NONE', #134, #179, #21 ) ;
#34 =( LENGTH_UNIT ( ) NAMED_UNIT ( * ) SI_UNIT ( .MILLI., .METRE. ) );
#35 = MANIFOLD_SOLID_BREP ( 'Corps-Déplacer/Copier1[2]', #103 ) ;
#36 = PRODUCT_DEFINITION_FORMATION_WITH_SPECIFIED_SOURCE ( 'ANY', '', #121, .NOT_KNOWN. ) ;
#37 = PRODUCT_DEFINITION_SHAPE ( 'NONE', 'NONE',  #150 ) ;
#38 = ADVANCED_FACE ( 'NONE', ( #155, #7 ), #194, .T. ) ;
#39 = DIRECTION ( 'NONE',  ( 4.275831445896958607E-31, 1.000000000000000000, 1.224646799147353207E-16 ) ) ;
#40 = DATE_AND_TIME ( #57, #156 ) ;
#41 = CALENDAR_DATE ( 2021, 1, 11 ) ;
#42 = CARTESIAN_POINT ( 'NONE',  ( -1.496544924531591446E-30, 5.249172983450887604E-32, -4.286275019953153706E-16 ) ) ;
#43 = EDGE_CURVE ( 'NONE', #30, #30, #68, .T. ) ;
#44 = EDGE_CURVE ( 'NONE', #137, #137, #216, .T. ) ;
#45 = DIRECTION ( 'NONE',  ( 4.275831445896957731E-31, 1.000000000000000000, 1.224646799147353454E-16 ) ) ;
#46 = CARTESIAN_POINT ( 'NONE',  ( 3.212162831735682182E-13, -1.126675055215564941E-14, 92.00000000000000000 ) ) ;
#47 = AXIS2_PLACEMENT_3D ( 'NONE', #209, #193, #98 ) ;
#48 = CC_DESIGN_PERSON_AND_ORGANIZATION_ASSIGNMENT ( #143, #105, ( #150 ) ) ;
#49 = DIRECTION ( 'NONE',  ( -4.282846870592447371E-31, -1.000000000000000000, -1.226656096638776401E-16 ) ) ;
#50 = CC_DESIGN_APPROVAL ( #208, ( #36 ) ) ;
#51 = EDGE_LOOP ( 'NONE', ( #26 ) ) ;
#52 = DATE_AND_TIME ( #41, #61 ) ;
#53 = APPROVAL_STATUS ( 'not_yet_approved' ) ;
#54 = CARTESIAN_POINT ( 'NONE',  ( 3.194705425041467083E-13, 7.999999999999989342, 91.50000000000000000 ) ) ;
#55 = EDGE_CURVE ( 'NONE', #108, #108, #115, .T. ) ;
#56 = DIRECTION ( 'NONE',  ( 0.0000000000000000000, 1.000000000000000000, 0.0000000000000000000 ) ) ;
#57 = CALENDAR_DATE ( 2021, 1, 11 ) ;
#58 = DATE_AND_TIME ( #86, #15 ) ;
#59 = DIRECTION ( 'NONE',  ( -4.275831445896958607E-31, -1.000000000000000000, -1.224646799147353207E-16 ) ) ;
#60 = ADVANCED_FACE ( 'NONE', ( #196 ), #13, .F. ) ;
#61 = LOCAL_TIME ( 13, 23, 40.00000000000000000, #100 ) ;
#62 = CARTESIAN_POINT ( 'NONE',  ( 0.0000000000000000000, 0.0000000000000000000, 0.0000000000000000000 ) ) ;
#63 = CC_DESIGN_DATE_AND_TIME_ASSIGNMENT ( #40, #102, ( #150 ) ) ;
#64 = DIRECTION ( 'NONE',  ( -3.491481338843133355E-15, 1.224646799147353207E-16, -1.000000000000000000 ) ) ;
#65 = CARTESIAN_POINT ( 'NONE',  ( 9.077851480992146724E-14, 7.999999999999989342, 26.00000000000000000 ) ) ;
#66 = DIRECTION ( 'NONE',  ( 1.000000000000000000, 0.0000000000000000000, 0.0000000000000000000 ) ) ;
#67 = CALENDAR_DATE ( 2021, 1, 11 ) ;
#68 = CIRCLE ( 'NONE', #33, 7.999999999999992895 ) ;
#69 = DIRECTION ( 'NONE',  ( -3.491481338843133355E-15, 1.224646799147353207E-16, -1.000000000000000000 ) ) ;
#70 = VERTEX_POINT ( 'NONE', #93 ) ;
#71 = FACE_OUTER_BOUND ( 'NONE', #11, .T. ) ;
#72 = CARTESIAN_POINT ( 'NONE',  ( 9.077851480992146724E-14, -3.184081677783118191E-15, 26.00000000000000000 ) ) ;
#73 = CALENDAR_DATE ( 2021, 1, 11 ) ;
#74 = EDGE_LOOP ( 'NONE', ( #177 ) ) ;
#75 = EDGE_LOOP ( 'NONE', ( #90 ) ) ;
#76 = PERSON_AND_ORGANIZATION_ROLE ( 'classification_officer' ) ;
#77 = CC_DESIGN_SECURITY_CLASSIFICATION ( #116, ( #36 ) ) ;
#78 = ADVANCED_FACE ( 'NONE', ( #107, #127 ), #149, .T. ) ;
#79 = ADVANCED_BREP_SHAPE_REPRESENTATION ( '57226', ( #185, #35, #22 ), #164 ) ;
#80 = AXIS2_PLACEMENT_3D ( 'NONE', #113, #69, #39 ) ;
#81 = MECHANICAL_CONTEXT ( 'NONE', #99, 'mechanical' ) ;
#82 = DIRECTION ( 'NONE',  ( 3.491481338843133355E-15, -1.224646799147353207E-16, 1.000000000000000000 ) ) ;
#83 = APPROVAL_STATUS ( 'not_yet_approved' ) ;
#84 = CC_DESIGN_APPROVAL ( #32, ( #116 ) ) ;
#85 = EDGE_LOOP ( 'NONE', ( #88 ) ) ;
#86 = CALENDAR_DATE ( 2021, 1, 11 ) ;
#87 = CARTESIAN_POINT ( 'NONE',  ( 6.982962677686238114E-16, -2.453312193277545777E-17, 0.1999999999999991784 ) ) ;
#88 = ORIENTED_EDGE ( 'NONE', *, *, #189, .F. ) ;
#89 = CIRCLE ( 'NONE', #139, 8.000000000000000000 ) ;
#90 = ORIENTED_EDGE ( 'NONE', *, *, #217, .T. ) ;
#91 = APPROVAL ( #83, 'UNSPECIFIED' ) ;
#92 = FACE_OUTER_BOUND ( 'NONE', #74, .T. ) ;
#93 = CARTESIAN_POINT ( 'NONE',  ( 6.982962677686202616E-16, -8.000000000000000000, 0.1999999999999982070 ) ) ;
#94 = CC_DESIGN_DATE_AND_TIME_ASSIGNMENT ( #158, #28, ( #116 ) ) ;
#95 = ORIENTED_EDGE ( 'NONE', *, *, #43, .F. ) ;
#96 = PERSON_AND_ORGANIZATION_ROLE ( 'creator' ) ;
#97 = AXIS2_PLACEMENT_3D ( 'NONE', #212, #10, #157 ) ;
#98 = DIRECTION ( 'NONE',  ( 0.0000000000000000000, 1.000000000000000000, 0.0000000000000000000 ) ) ;
#99 = APPLICATION_CONTEXT ( 'configuration controlled 3d designs of mechanical parts and assemblies' ) ;
#100 = COORDINATED_UNIVERSAL_TIME_OFFSET ( 1, 0, .AHEAD. ) ;
#101 = ORIENTED_EDGE ( 'NONE', *, *, #159, .T. ) ;
#102 = DATE_TIME_ROLE ( 'creation_date' ) ;
#103 = CLOSED_SHELL ( 'NONE', ( #78, #204, #187, #25 ) ) ;
#104 = DIRECTION ( 'NONE',  ( 3.491481338843133355E-15, -1.224646799147353207E-16, 1.000000000000000000 ) ) ;
#105 = PERSON_AND_ORGANIZATION_ROLE ( 'creator' ) ;
#106 = FACE_BOUND ( 'NONE', #182, .T. ) ;
#107 = FACE_OUTER_BOUND ( 'NONE', #210, .T. ) ;
#108 = VERTEX_POINT ( 'NONE', #65 ) ;
#109 = DIRECTION ( 'NONE',  ( -3.491481338843133355E-15, 1.224646799147353207E-16, -1.000000000000000000 ) ) ;
#110 = DIRECTION ( 'NONE',  ( 3.491481338843133355E-15, -1.226656096638776648E-16, 1.000000000000000000 ) ) ;
#111 = PERSON_AND_ORGANIZATION ( #23, #140 ) ;
#112 = ORIENTED_EDGE ( 'NONE', *, *, #217, .F. ) ;
#113 = CARTESIAN_POINT ( 'NONE',  ( 0.0000000000000000000, 0.0000000000000000000, 0.0000000000000000000 ) ) ;
#114 = COORDINATED_UNIVERSAL_TIME_OFFSET ( 1, 0, .AHEAD. ) ;
#115 = CIRCLE ( 'NONE', #181, 7.999999999999992895 ) ;
#116 = SECURITY_CLASSIFICATION ( '', '', #162 ) ;
#117 = PLANE ( 'NONE',  #1 ) ;
#118 = PERSON_AND_ORGANIZATION ( #23, #140 ) ;
#119 = DIRECTION ( 'NONE',  ( -4.333342374871280669E-31, -1.000000000000000000, -1.219727444046192488E-16 ) ) ;
#120 = UNCERTAINTY_MEASURE_WITH_UNIT (LENGTH_MEASURE( 1.000000000000000082E-05 ), #34, 'distance_accuracy_value', 'NONE');
#121 = PRODUCT ( '57226', '57226', '', ( #81 ) ) ;
#122 = APPROVAL_ROLE ( '' ) ;
#123 = LOCAL_TIME ( 13, 23, 40.00000000000000000, #166 ) ;
#124 = APPLICATION_CONTEXT ( 'configuration controlled 3d designs of mechanical parts and assemblies' ) ;
#125 = CLOSED_SHELL ( 'NONE', ( #223, #38, #131, #60 ) ) ;
#126 = LOCAL_TIME ( 13, 23, 40.00000000000000000, #5 ) ;
#127 = FACE_OUTER_BOUND ( 'NONE', #75, .T. ) ;
#128 = VERTEX_POINT ( 'NONE', #191 ) ;
#129 = CARTESIAN_POINT ( 'NONE',  ( 3.212162831735682182E-13, 5.624099184981950155E-32, 92.00000000000000000 ) ) ;
#130 = CC_DESIGN_PERSON_AND_ORGANIZATION_ASSIGNMENT ( #111, #151, ( #121 ) ) ;
#131 = ADVANCED_FACE ( 'NONE', ( #92, #106 ), #3, .T. ) ;
#132 = AXIS2_PLACEMENT_3D ( 'NONE', #129, #64, #167 ) ;
#133 = DATE_AND_TIME ( #67, #126 ) ;
#134 = CARTESIAN_POINT ( 'NONE',  ( 9.077851480992146724E-14, -3.184081677783118191E-15, 26.00000000000000000 ) ) ;
#135 = EDGE_LOOP ( 'NONE', ( #215 ) ) ;
#136 = PLANE ( 'NONE',  #17 ) ;
#137 = VERTEX_POINT ( 'NONE', #54 ) ;
#138 = DIRECTION ( 'NONE',  ( -3.491481338843133355E-15, 1.224646799147353207E-16, -1.000000000000000000 ) ) ;
#139 = AXIS2_PLACEMENT_3D ( 'NONE', #163, #144, #119 ) ;
#140 = ORGANIZATION ( 'UNSPECIFIED', 'UNSPECIFIED', '' ) ;
#141 = EDGE_LOOP ( 'NONE', ( #220 ) ) ;
#142 = PERSON_AND_ORGANIZATION ( #23, #140 ) ;
#143 = PERSON_AND_ORGANIZATION ( #23, #140 ) ;
#144 = DIRECTION ( 'NONE',  ( 3.491481338843133355E-15, -1.226656096638776648E-16, 1.000000000000000000 ) ) ;
#145 = CIRCLE ( 'NONE', #47, 7.500000000000000888 ) ;
#146 = CC_DESIGN_APPROVAL ( #91, ( #150 ) ) ;
#147 = CARTESIAN_POINT ( 'NONE',  ( 9.077851480992146724E-14, 7.999999999999989342, 26.00000000000000000 ) ) ;
#148 = CC_DESIGN_PERSON_AND_ORGANIZATION_ASSIGNMENT ( #24, #76, ( #116 ) ) ;
#149 = CYLINDRICAL_SURFACE ( 'NONE', #168, 7.999999999999991118 ) ;
#150 = PRODUCT_DEFINITION ( 'UNKNOWN', '', #36, #219 ) ;
#151 = PERSON_AND_ORGANIZATION_ROLE ( 'design_owner' ) ;
#152 = DIRECTION ( 'NONE',  ( -4.275831445896958607E-31, -1.000000000000000000, -1.224646799147353207E-16 ) ) ;
#153 =( NAMED_UNIT ( * ) SI_UNIT ( $, .STERADIAN. ) SOLID_ANGLE_UNIT ( ) );
#154 = APPROVAL_ROLE ( '' ) ;
#155 = FACE_OUTER_BOUND ( 'NONE', #161, .T. ) ;
#156 = LOCAL_TIME ( 13, 23, 40.00000000000000000, #114 ) ;
#157 = DIRECTION ( 'NONE',  ( 0.0000000000000000000, 1.000000000000000000, 0.0000000000000000000 ) ) ;
#158 = DATE_AND_TIME ( #73, #123 ) ;
#159 = EDGE_CURVE ( 'NONE', #16, #16, #145, .T. ) ;
#160 = DIRECTION ( 'NONE',  ( -4.333342374871280669E-31, -1.000000000000000000, -1.219727444046192488E-16 ) ) ;
#161 = EDGE_LOOP ( 'NONE', ( #95 ) ) ;
#162 = SECURITY_CLASSIFICATION_LEVEL ( 'unclassified' ) ;
#163 = CARTESIAN_POINT ( 'NONE',  ( 6.982962677686238114E-16, -2.453312193277545777E-17, 0.1999999999999991784 ) ) ;
#164 =( GEOMETRIC_REPRESENTATION_CONTEXT ( 3 ) GLOBAL_UNCERTAINTY_ASSIGNED_CONTEXT ( ( #120 ) ) GLOBAL_UNIT_ASSIGNED_CONTEXT ( ( #34, #19, #153 ) ) REPRESENTATION_CONTEXT ( 'NONE', 'WORKASPACE' ) );
#165 = APPROVAL_DATE_TIME ( #58, #32 ) ;
#166 = COORDINATED_UNIVERSAL_TIME_OFFSET ( 1, 0, .AHEAD. ) ;
#167 = DIRECTION ( 'NONE',  ( 4.275831445896958607E-31, 1.000000000000000000, 1.224646799147353207E-16 ) ) ;
#168 = AXIS2_PLACEMENT_3D ( 'NONE', #62, #109, #45 ) ;
#169 = CC_DESIGN_PERSON_AND_ORGANIZATION_ASSIGNMENT ( #118, #175, ( #36 ) ) ;
#170 = DIRECTION ( 'NONE',  ( 3.491481338843133355E-15, -1.226656096638776648E-16, 1.000000000000000000 ) ) ;
#171 = AXIS2_PLACEMENT_3D ( 'NONE', #29, #222, #59 ) ;
#172 = CARTESIAN_POINT ( 'NONE',  ( 3.212162831735682182E-13, 7.499999999999989342, 92.00000000000000000 ) ) ;
#173 = CARTESIAN_POINT ( 'NONE',  ( 0.0000000000000000000, 0.0000000000000000000, 0.0000000000000000000 ) ) ;
#174 = DIRECTION ( 'NONE',  ( -4.275831445896958607E-31, -1.000000000000000000, -1.224646799147353207E-16 ) ) ;
#175 = PERSON_AND_ORGANIZATION_ROLE ( 'design_supplier' ) ;
#176 = FACE_OUTER_BOUND ( 'NONE', #200, .T. ) ;
#177 = ORIENTED_EDGE ( 'NONE', *, *, #44, .F. ) ;
#178 = PERSON_AND_ORGANIZATION ( #23, #140 ) ;
#179 = DIRECTION ( 'NONE',  ( -3.491481338843133355E-15, 1.224646799147353207E-16, -1.000000000000000000 ) ) ;
#180 = ORIENTED_EDGE ( 'NONE', *, *, #55, .F. ) ;
#181 = AXIS2_PLACEMENT_3D ( 'NONE', #72, #138, #56 ) ;
#182 = EDGE_LOOP ( 'NONE', ( #101 ) ) ;
#183 = PERSON_AND_ORGANIZATION ( #23, #140 ) ;
#184 = PLANE ( 'NONE',  #171 ) ;
#185 = MANIFOLD_SOLID_BREP ( 'Corps-Déplacer/Copier1[1]', #125 ) ;
#186 = CC_DESIGN_PERSON_AND_ORGANIZATION_ASSIGNMENT ( #142, #96, ( #36 ) ) ;
#187 = ADVANCED_FACE ( 'NONE', ( #206, #176 ), #31, .T. ) ;
#188 = DIRECTION ( 'NONE',  ( -3.491481338843133355E-15, 1.224646799147353207E-16, -1.000000000000000000 ) ) ;
#189 = EDGE_CURVE ( 'NONE', #128, #128, #20, .T. ) ;
#190 = APPROVAL_PERSON_ORGANIZATION ( #178, #32, #122 ) ;
#191 = CARTESIAN_POINT ( 'NONE',  ( -6.681241118124219615E-30, -7.800000000000002487, -1.913583510756491955E-15 ) ) ;
#192 = PERSON_AND_ORGANIZATION ( #23, #140 ) ;
#193 = DIRECTION ( 'NONE',  ( -3.491481338843133355E-15, 1.224646799147353207E-16, -1.000000000000000000 ) ) ;
#194 = CYLINDRICAL_SURFACE ( 'NONE', #80, 7.999999999999996447 ) ;
#195 = FACE_OUTER_BOUND ( 'NONE', #85, .T. ) ;
#196 = FACE_OUTER_BOUND ( 'NONE', #51, .T. ) ;
#197 = EDGE_LOOP ( 'NONE', ( #218 ) ) ;
#198 = APPROVAL_ROLE ( '' ) ;
#199 = FACE_OUTER_BOUND ( 'NONE', #141, .T. ) ;
#200 = EDGE_LOOP ( 'NONE', ( #112 ) ) ;
#201 = APPROVAL_STATUS ( 'not_yet_approved' ) ;
#202 = DIRECTION ( 'NONE',  ( 0.0000000000000000000, 1.000000000000000000, 0.0000000000000000000 ) ) ;
#203 = DIRECTION ( 'NONE',  ( 0.0000000000000000000, 0.0000000000000000000, 1.000000000000000000 ) ) ;
#204 = ADVANCED_FACE ( 'NONE', ( #71 ), #136, .T. ) ;
#205 = APPLICATION_PROTOCOL_DEFINITION ( 'international standard', 'config_control_design', 1994, #99 ) ;
#206 = FACE_BOUND ( 'NONE', #197, .T. ) ;
#207 = APPROVAL_DATE_TIME ( #133, #91 ) ;
#208 = APPROVAL ( #201, 'UNSPECIFIED' ) ;
#209 = CARTESIAN_POINT ( 'NONE',  ( 3.212162831735682182E-13, -1.126675055215564941E-14, 92.00000000000000000 ) ) ;
#210 = EDGE_LOOP ( 'NONE', ( #8 ) ) ;
#211 = PRODUCT_RELATED_PRODUCT_CATEGORY ( 'detail', '', ( #121 ) ) ;
#212 = CARTESIAN_POINT ( 'NONE',  ( 3.194705425041467083E-13, -1.120551821219828183E-14, 91.50000000000000000 ) ) ;
#213 = APPROVAL_DATE_TIME ( #52, #208 ) ;
#214 = CARTESIAN_POINT ( 'NONE',  ( 9.077851480992146724E-14, 5.999039130647421673E-32, 26.00000000000000000 ) ) ;
#215 = ORIENTED_EDGE ( 'NONE', *, *, #44, .T. ) ;
#216 = CIRCLE ( 'NONE', #97, 8.000000000000000000 ) ;
#217 = EDGE_CURVE ( 'NONE', #70, #70, #89, .T. ) ;
#218 = ORIENTED_EDGE ( 'NONE', *, *, #189, .T. ) ;
#219 = DESIGN_CONTEXT ( 'detailed design', #124, 'design' ) ;
#220 = ORIENTED_EDGE ( 'NONE', *, *, #43, .T. ) ;
#221 = SHAPE_DEFINITION_REPRESENTATION ( #37, #79 ) ;
#222 = DIRECTION ( 'NONE',  ( 3.491481338843133355E-15, -1.224646799147353207E-16, 1.000000000000000000 ) ) ;
#223 = ADVANCED_FACE ( 'NONE', ( #199 ), #184, .F. ) ;
ENDSEC;
END-ISO-10303-21;
