ISO-10303-21;
HEADER;
FILE_DESCRIPTION (( 'STEP AP203' ),
    '1' );
FILE_NAME ('57225.step',
    '2021-11-01T12:23:40',
    ( '' ),
    ( '' ),
    'SwSTEP 2.0',
    'SolidWorks 2019',
    '' );
FILE_SCHEMA (( 'CONFIG_CONTROL_DESIGN' ));
ENDSEC;

DATA;
#1 = EDGE_LOOP ( 'NONE', ( #22 ) ) ;
#2 = VERTEX_POINT ( 'NONE', #117 ) ;
#3 = AXIS2_PLACEMENT_3D ( 'NONE', #13, #199, #65 ) ;
#4 = SHAPE_DEFINITION_REPRESENTATION ( #25, #163 ) ;
#5 = CC_DESIGN_APPROVAL ( #155, ( #205 ) ) ;
#6 = EDGE_LOOP ( 'NONE', ( #209 ) ) ;
#7 = DIRECTION ( 'NONE',  ( -3.491481338843133355E-15, 1.224646799147353207E-16, -1.000000000000000000 ) ) ;
#8 = CC_DESIGN_PERSON_AND_ORGANIZATION_ASSIGNMENT ( #202, #113, ( #207 ) ) ;
#9 = DATE_AND_TIME ( #125, #129 ) ;
#10 = DIRECTION ( 'NONE',  ( -3.491481338843133355E-15, 1.224646799147353207E-16, -1.000000000000000000 ) ) ;
#11 = APPROVAL_DATE_TIME ( #44, #59 ) ;
#12 = CARTESIAN_POINT ( 'NONE',  ( 7.681258945454893382E-14, 5.249159239316492869E-32, 22.00000000000000000 ) ) ;
#13 = CARTESIAN_POINT ( 'NONE',  ( 2.897929511239800811E-13, 4.874219293651022994E-32, 83.00000000000000000 ) ) ;
#14 = CARTESIAN_POINT ( 'NONE',  ( 7.681258945454893382E-14, -2.694222958124176809E-15, 22.00000000000000000 ) ) ;
#15 = AXIS2_PLACEMENT_3D ( 'NONE', #97, #172, #82 ) ;
#16 = CARTESIAN_POINT ( 'NONE',  ( 0.0000000000000000000, 0.0000000000000000000, 0.0000000000000000000 ) ) ;
#17 = UNCERTAINTY_MEASURE_WITH_UNIT (LENGTH_MEASURE( 1.000000000000000082E-05 ), #137, 'distance_accuracy_value', 'NONE');
#18 = ADVANCED_FACE ( 'NONE', ( #43, #161 ), #92, .T. ) ;
#19 =( NAMED_UNIT ( * ) PLANE_ANGLE_UNIT ( ) SI_UNIT ( $, .RADIAN. ) );
#20 = AXIS2_PLACEMENT_3D ( 'NONE', #31, #7, #85 ) ;
#21 = CC_DESIGN_APPROVAL ( #109, ( #61 ) ) ;
#22 = ORIENTED_EDGE ( 'NONE', *, *, #37, .F. ) ;
#23 = APPROVAL_STATUS ( 'not_yet_approved' ) ;
#24 = CC_DESIGN_PERSON_AND_ORGANIZATION_ASSIGNMENT ( #108, #28, ( #54 ) ) ;
#25 = PRODUCT_DEFINITION_SHAPE ( 'NONE', 'NONE',  #205 ) ;
#26 = AXIS2_PLACEMENT_3D ( 'NONE', #51, #219, #116 ) ;
#27 = CARTESIAN_POINT ( 'NONE',  ( 2.880472104545584703E-13, -1.010333609296566392E-14, 82.50000000000000000 ) ) ;
#28 = PERSON_AND_ORGANIZATION_ROLE ( 'design_owner' ) ;
#29 = ORIENTED_EDGE ( 'NONE', *, *, #208, .F. ) ;
#30 = DATE_TIME_ROLE ( 'creation_date' ) ;
#31 = CARTESIAN_POINT ( 'NONE',  ( 2.897929511239800811E-13, -1.016456843292303150E-14, 83.00000000000000000 ) ) ;
#32 = DATE_AND_TIME ( #149, #46 ) ;
#33 = APPLICATION_CONTEXT ( 'configuration controlled 3d designs of mechanical parts and assemblies' ) ;
#34 = FACE_OUTER_BOUND ( 'NONE', #87, .T. ) ;
#35 = ORIENTED_EDGE ( 'NONE', *, *, #208, .T. ) ;
#36 = VERTEX_POINT ( 'NONE', #154 ) ;
#37 = EDGE_CURVE ( 'NONE', #67, #67, #222, .T. ) ;
#38 = EDGE_LOOP ( 'NONE', ( #90 ) ) ;
#39 = LOCAL_TIME ( 13, 23, 40.00000000000000000, #94 ) ;
#40 = FACE_OUTER_BOUND ( 'NONE', #6, .T. ) ;
#41 = APPROVAL_DATE_TIME ( #32, #155 ) ;
#42 = EDGE_LOOP ( 'NONE', ( #185 ) ) ;
#43 = FACE_BOUND ( 'NONE', #105, .T. ) ;
#44 = DATE_AND_TIME ( #130, #39 ) ;
#45 = DIRECTION ( 'NONE',  ( 3.491481338843133355E-15, -1.224646799147353207E-16, 1.000000000000000000 ) ) ;
#46 = LOCAL_TIME ( 13, 23, 40.00000000000000000, #138 ) ;
#47 = EDGE_CURVE ( 'NONE', #2, #2, #112, .T. ) ;
#48 = DIRECTION ( 'NONE',  ( 0.0000000000000000000, 1.000000000000000000, 0.0000000000000000000 ) ) ;
#49 = PERSON_AND_ORGANIZATION_ROLE ( 'creator' ) ;
#50 = CLOSED_SHELL ( 'NONE', ( #168, #53, #165, #101 ) ) ;
#51 = CARTESIAN_POINT ( 'NONE',  ( 0.0000000000000000000, 0.0000000000000000000, 0.0000000000000000000 ) ) ;
#52 = LOCAL_TIME ( 13, 23, 40.00000000000000000, #196 ) ;
#53 = ADVANCED_FACE ( 'NONE', ( #197, #40 ), #104, .T. ) ;
#54 = PRODUCT ( '57225', '57225', '', ( #186 ) ) ;
#55 = ORIENTED_EDGE ( 'NONE', *, *, #182, .T. ) ;
#56 = CC_DESIGN_APPROVAL ( #59, ( #207 ) ) ;
#57 = DATE_AND_TIME ( #160, #52 ) ;
#58 = DIRECTION ( 'NONE',  ( -3.491481338843133355E-15, 1.224646799147353207E-16, -1.000000000000000000 ) ) ;
#59 = APPROVAL ( #171, 'UNSPECIFIED' ) ;
#60 = AXIS2_PLACEMENT_3D ( 'NONE', #126, #45, #95 ) ;
#61 = SECURITY_CLASSIFICATION ( '', '', #122 ) ;
#62 = PERSON_AND_ORGANIZATION ( #119, #218 ) ;
#63 = CARTESIAN_POINT ( 'NONE',  ( -2.912335872002865508E-30, 7.571972810326645225E-32, -8.341261457143683867E-16 ) ) ;
#64 = APPROVAL_STATUS ( 'not_yet_approved' ) ;
#65 = DIRECTION ( 'NONE',  ( 4.275831445896958607E-31, 1.000000000000000000, 1.224646799147353207E-16 ) ) ;
#66 = ADVANCED_FACE ( 'NONE', ( #34 ), #131, .T. ) ;
#67 = VERTEX_POINT ( 'NONE', #132 ) ;
#68 = APPROVAL_ROLE ( '' ) ;
#69 = FACE_OUTER_BOUND ( 'NONE', #106, .T. ) ;
#70 = MANIFOLD_SOLID_BREP ( 'Corps-Déplacer/Copier1[2]', #191 ) ;
#71 = EDGE_CURVE ( 'NONE', #36, #36, #221, .T. ) ;
#72 = CARTESIAN_POINT ( 'NONE',  ( 6.982962677686211490E-16, -7.000000000000000000, 0.1999999999999984013 ) ) ;
#73 = DIRECTION ( 'NONE',  ( -3.491481338843133355E-15, 1.224646799147353207E-16, -1.000000000000000000 ) ) ;
#74 = ORIENTED_EDGE ( 'NONE', *, *, #47, .T. ) ;
#75 = ORIENTED_EDGE ( 'NONE', *, *, #80, .F. ) ;
#76 = PERSON_AND_ORGANIZATION ( #119, #218 ) ;
#77 = AXIS2_PLACEMENT_3D ( 'NONE', #12, #98, #84 ) ;
#78 = AXIS2_PLACEMENT_3D ( 'NONE', #16, #206, #127 ) ;
#79 = FACE_OUTER_BOUND ( 'NONE', #136, .T. ) ;
#80 = EDGE_CURVE ( 'NONE', #158, #158, #216, .T. ) ;
#81 = PERSON_AND_ORGANIZATION_ROLE ( 'classification_officer' ) ;
#82 = DIRECTION ( 'NONE',  ( -4.275831445896958607E-31, -1.000000000000000000, -1.224646799147353207E-16 ) ) ;
#83 = AXIS2_PLACEMENT_3D ( 'NONE', #179, #58, #189 ) ;
#84 = DIRECTION ( 'NONE',  ( -4.275831445896958607E-31, -1.000000000000000000, -1.224646799147353207E-16 ) ) ;
#85 = DIRECTION ( 'NONE',  ( 0.0000000000000000000, 1.000000000000000000, 0.0000000000000000000 ) ) ;
#86 = ADVANCED_FACE ( 'NONE', ( #204, #203 ), #187, .T. ) ;
#87 = EDGE_LOOP ( 'NONE', ( #141 ) ) ;
#88 = APPROVAL_ROLE ( '' ) ;
#89 = DIRECTION ( 'NONE',  ( -4.264559162571736407E-31, -1.000000000000000000, -1.239088197126290817E-16 ) ) ;
#90 = ORIENTED_EDGE ( 'NONE', *, *, #71, .F. ) ;
#91 = DATE_AND_TIME ( #194, #144 ) ;
#92 = CONICAL_SURFACE ( 'NONE', #102, 7.000000000000000000, 0.7853981633974428389 ) ;
#93 = APPROVAL_PERSON_ORGANIZATION ( #145, #109, #88 ) ;
#94 = COORDINATED_UNIVERSAL_TIME_OFFSET ( 1, 0, .AHEAD. ) ;
#95 = DIRECTION ( 'NONE',  ( -4.275831445896958607E-31, -1.000000000000000000, -1.224646799147353207E-16 ) ) ;
#96 = COORDINATED_UNIVERSAL_TIME_OFFSET ( 1, 0, .AHEAD. ) ;
#97 = CARTESIAN_POINT ( 'NONE',  ( -1.282753352236743429E-30, 4.499293092119958252E-32, -3.673951620379476979E-16 ) ) ;
#98 = DIRECTION ( 'NONE',  ( 3.491481338843133355E-15, -1.224646799147353207E-16, 1.000000000000000000 ) ) ;
#99 = CARTESIAN_POINT ( 'NONE',  ( 2.897929511239800811E-13, 6.499999999999990230, 83.00000000000000000 ) ) ;
#100 = VERTEX_POINT ( 'NONE', #192 ) ;
#101 = ADVANCED_FACE ( 'NONE', ( #69 ), #167, .F. ) ;
#102 = AXIS2_PLACEMENT_3D ( 'NONE', #107, #183, #89 ) ;
#103 = AXIS2_PLACEMENT_3D ( 'NONE', #150, #217, #114 ) ;
#104 = CYLINDRICAL_SURFACE ( 'NONE', #83, 6.999999999999995559 ) ;
#105 = EDGE_LOOP ( 'NONE', ( #74 ) ) ;
#106 = EDGE_LOOP ( 'NONE', ( #75 ) ) ;
#107 = CARTESIAN_POINT ( 'NONE',  ( 6.982962677686241073E-16, -2.453312193277547009E-17, 0.1999999999999992895 ) ) ;
#108 = PERSON_AND_ORGANIZATION ( #119, #218 ) ;
#109 = APPROVAL ( #23, 'UNSPECIFIED' ) ;
#110 = DATE_TIME_ROLE ( 'classification_date' ) ;
#111 = DIRECTION ( 'NONE',  ( -3.491481338843133355E-15, 1.224646799147353207E-16, -1.000000000000000000 ) ) ;
#112 = CIRCLE ( 'NONE', #139, 6.800000000000002487 ) ;
#113 = PERSON_AND_ORGANIZATION_ROLE ( 'creator' ) ;
#114 = DIRECTION ( 'NONE',  ( -4.264559162571736407E-31, -1.000000000000000000, -1.239088197126290817E-16 ) ) ;
#115 = APPROVAL_PERSON_ORGANIZATION ( #198, #59, #68 ) ;
#116 = DIRECTION ( 'NONE',  ( 4.275831445896958607E-31, 1.000000000000000000, 1.224646799147353454E-16 ) ) ;
#117 = CARTESIAN_POINT ( 'NONE',  ( -5.824671744005731017E-30, -6.800000000000002487, -1.668252291428736773E-15 ) ) ;
#118 = AXIS2_PLACEMENT_3D ( 'NONE', #220, #111, #48 ) ;
#119 = PERSON ( 'UNSPECIFIED', 'UNSPECIFIED', 'UNSPECIFIED', ('UNSPECIFIED'), ('UNSPECIFIED'), ('UNSPECIFIED') ) ;
#120 = AXIS2_PLACEMENT_3D ( 'NONE', #14, #146, #188 ) ;
#121 = DIRECTION ( 'NONE',  ( 3.491481338843133355E-15, -1.226656096638776648E-16, 1.000000000000000000 ) ) ;
#122 = SECURITY_CLASSIFICATION_LEVEL ( 'unclassified' ) ;
#123 = EDGE_LOOP ( 'NONE', ( #55 ) ) ;
#124 = PRODUCT_RELATED_PRODUCT_CATEGORY ( 'detail', '', ( #54 ) ) ;
#125 = CALENDAR_DATE ( 2021, 1, 11 ) ;
#126 = CARTESIAN_POINT ( 'NONE',  ( 7.681258945454893382E-14, 5.249159239316492869E-32, 22.00000000000000000 ) ) ;
#127 = DIRECTION ( 'NONE',  ( 1.000000000000000000, 0.0000000000000000000, 0.0000000000000000000 ) ) ;
#128 = PLANE ( 'NONE',  #15 ) ;
#129 = LOCAL_TIME ( 13, 23, 40.00000000000000000, #96 ) ;
#130 = CALENDAR_DATE ( 2021, 1, 11 ) ;
#131 = PLANE ( 'NONE',  #77 ) ;
#132 = CARTESIAN_POINT ( 'NONE',  ( 2.880472104545584703E-13, 6.999999999999989342, 82.50000000000000000 ) ) ;
#133 = APPROVAL_PERSON_ORGANIZATION ( #62, #155, #200 ) ;
#134 = EDGE_LOOP ( 'NONE', ( #35 ) ) ;
#135 = CC_DESIGN_PERSON_AND_ORGANIZATION_ASSIGNMENT ( #166, #81, ( #61 ) ) ;
#136 = EDGE_LOOP ( 'NONE', ( #193 ) ) ;
#137 =( LENGTH_UNIT ( ) NAMED_UNIT ( * ) SI_UNIT ( .MILLI., .METRE. ) );
#138 = COORDINATED_UNIVERSAL_TIME_OFFSET ( 1, 0, .AHEAD. ) ;
#139 = AXIS2_PLACEMENT_3D ( 'NONE', #63, #121, #140 ) ;
#140 = DIRECTION ( 'NONE',  ( -4.282846870592447371E-31, -1.000000000000000000, -1.226656096638776648E-16 ) ) ;
#141 = ORIENTED_EDGE ( 'NONE', *, *, #182, .F. ) ;
#142 = PERSON_AND_ORGANIZATION ( #119, #218 ) ;
#143 = CIRCLE ( 'NONE', #177, 6.999999999999992006 ) ;
#144 = LOCAL_TIME ( 13, 23, 40.00000000000000000, #169 ) ;
#145 = PERSON_AND_ORGANIZATION ( #119, #218 ) ;
#146 = DIRECTION ( 'NONE',  ( -3.491481338843133355E-15, 1.224646799147353207E-16, -1.000000000000000000 ) ) ;
#147 = APPROVAL_DATE_TIME ( #57, #109 ) ;
#148 = DIRECTION ( 'NONE',  ( 0.0000000000000000000, 1.000000000000000000, 0.0000000000000000000 ) ) ;
#149 = CALENDAR_DATE ( 2021, 1, 11 ) ;
#150 = CARTESIAN_POINT ( 'NONE',  ( 6.982962677686241073E-16, -2.453312193277547009E-17, 0.1999999999999992895 ) ) ;
#151 = FACE_OUTER_BOUND ( 'NONE', #1, .T. ) ;
#152 =( NAMED_UNIT ( * ) SI_UNIT ( $, .STERADIAN. ) SOLID_ANGLE_UNIT ( ) );
#153 = APPLICATION_CONTEXT ( 'configuration controlled 3d designs of mechanical parts and assemblies' ) ;
#154 = CARTESIAN_POINT ( 'NONE',  ( 7.681258945454893382E-14, 6.999999999999989342, 22.00000000000000000 ) ) ;
#155 = APPROVAL ( #64, 'UNSPECIFIED' ) ;
#156 = DESIGN_CONTEXT ( 'detailed design', #153, 'design' ) ;
#157 = VERTEX_POINT ( 'NONE', #72 ) ;
#158 = VERTEX_POINT ( 'NONE', #99 ) ;
#159 = EDGE_LOOP ( 'NONE', ( #164 ) ) ;
#160 = CALENDAR_DATE ( 2021, 1, 11 ) ;
#161 = FACE_OUTER_BOUND ( 'NONE', #178, .T. ) ;
#162 = CC_DESIGN_DATE_AND_TIME_ASSIGNMENT ( #9, #30, ( #205 ) ) ;
#163 = ADVANCED_BREP_SHAPE_REPRESENTATION ( '57225', ( #214, #70, #78 ), #201 ) ;
#164 = ORIENTED_EDGE ( 'NONE', *, *, #47, .F. ) ;
#165 = ADVANCED_FACE ( 'NONE', ( #151, #190 ), #210, .T. ) ;
#166 = PERSON_AND_ORGANIZATION ( #119, #218 ) ;
#167 = PLANE ( 'NONE',  #3 ) ;
#168 = ADVANCED_FACE ( 'NONE', ( #79 ), #213, .F. ) ;
#169 = COORDINATED_UNIVERSAL_TIME_OFFSET ( 1, 0, .AHEAD. ) ;
#170 = CARTESIAN_POINT ( 'NONE',  ( 7.681258945454893382E-14, -2.694222958124176809E-15, 22.00000000000000000 ) ) ;
#171 = APPROVAL_STATUS ( 'not_yet_approved' ) ;
#172 = DIRECTION ( 'NONE',  ( 3.491481338843133355E-15, -1.224646799147353207E-16, 1.000000000000000000 ) ) ;
#173 = CC_DESIGN_PERSON_AND_ORGANIZATION_ASSIGNMENT ( #76, #49, ( #205 ) ) ;
#174 = CC_DESIGN_SECURITY_CLASSIFICATION ( #61, ( #207 ) ) ;
#175 = APPLICATION_PROTOCOL_DEFINITION ( 'international standard', 'config_control_design', 1994, #33 ) ;
#176 = CC_DESIGN_PERSON_AND_ORGANIZATION_ASSIGNMENT ( #142, #211, ( #207 ) ) ;
#177 = AXIS2_PLACEMENT_3D ( 'NONE', #170, #10, #148 ) ;
#178 = EDGE_LOOP ( 'NONE', ( #29 ) ) ;
#179 = CARTESIAN_POINT ( 'NONE',  ( 0.0000000000000000000, 0.0000000000000000000, 0.0000000000000000000 ) ) ;
#180 = APPLICATION_PROTOCOL_DEFINITION ( 'international standard', 'config_control_design', 1994, #153 ) ;
#181 = AXIS2_PLACEMENT_3D ( 'NONE', #27, #73, #212 ) ;
#182 = EDGE_CURVE ( 'NONE', #100, #100, #143, .T. ) ;
#183 = DIRECTION ( 'NONE',  ( 3.491481338843133355E-15, -1.226656096638776648E-16, 1.000000000000000000 ) ) ;
#184 = ADVANCED_FACE ( 'NONE', ( #215 ), #128, .F. ) ;
#185 = ORIENTED_EDGE ( 'NONE', *, *, #80, .T. ) ;
#186 = MECHANICAL_CONTEXT ( 'NONE', #33, 'mechanical' ) ;
#187 = CYLINDRICAL_SURFACE ( 'NONE', #26, 6.999999999999990230 ) ;
#188 = DIRECTION ( 'NONE',  ( 0.0000000000000000000, 1.000000000000000000, 0.0000000000000000000 ) ) ;
#189 = DIRECTION ( 'NONE',  ( 4.275831445896959482E-31, 1.000000000000000000, 1.224646799147353207E-16 ) ) ;
#190 = FACE_BOUND ( 'NONE', #42, .T. ) ;
#191 = CLOSED_SHELL ( 'NONE', ( #86, #66, #18, #184 ) ) ;
#192 = CARTESIAN_POINT ( 'NONE',  ( 7.681258945454893382E-14, 6.999999999999989342, 22.00000000000000000 ) ) ;
#193 = ORIENTED_EDGE ( 'NONE', *, *, #71, .T. ) ;
#194 = CALENDAR_DATE ( 2021, 1, 11 ) ;
#195 = CIRCLE ( 'NONE', #103, 7.000000000000000000 ) ;
#196 = COORDINATED_UNIVERSAL_TIME_OFFSET ( 1, 0, .AHEAD. ) ;
#197 = FACE_OUTER_BOUND ( 'NONE', #38, .T. ) ;
#198 = PERSON_AND_ORGANIZATION ( #119, #218 ) ;
#199 = DIRECTION ( 'NONE',  ( -3.491481338843133355E-15, 1.224646799147353207E-16, -1.000000000000000000 ) ) ;
#200 = APPROVAL_ROLE ( '' ) ;
#201 =( GEOMETRIC_REPRESENTATION_CONTEXT ( 3 ) GLOBAL_UNCERTAINTY_ASSIGNED_CONTEXT ( ( #17 ) ) GLOBAL_UNIT_ASSIGNED_CONTEXT ( ( #137, #19, #152 ) ) REPRESENTATION_CONTEXT ( 'NONE', 'WORKASPACE' ) );
#202 = PERSON_AND_ORGANIZATION ( #119, #218 ) ;
#203 = FACE_OUTER_BOUND ( 'NONE', #134, .T. ) ;
#204 = FACE_OUTER_BOUND ( 'NONE', #123, .T. ) ;
#205 = PRODUCT_DEFINITION ( 'UNKNOWN', '', #207, #156 ) ;
#206 = DIRECTION ( 'NONE',  ( 0.0000000000000000000, 0.0000000000000000000, 1.000000000000000000 ) ) ;
#207 = PRODUCT_DEFINITION_FORMATION_WITH_SPECIFIED_SOURCE ( 'ANY', '', #54, .NOT_KNOWN. ) ;
#208 = EDGE_CURVE ( 'NONE', #157, #157, #195, .T. ) ;
#209 = ORIENTED_EDGE ( 'NONE', *, *, #37, .T. ) ;
#210 = CONICAL_SURFACE ( 'NONE', #20, 6.500000000000000888, 0.7853981633974473908 ) ;
#211 = PERSON_AND_ORGANIZATION_ROLE ( 'design_supplier' ) ;
#212 = DIRECTION ( 'NONE',  ( 0.0000000000000000000, 1.000000000000000000, 0.0000000000000000000 ) ) ;
#213 = PLANE ( 'NONE',  #60 ) ;
#214 = MANIFOLD_SOLID_BREP ( 'Corps-Déplacer/Copier1[1]', #50 ) ;
#215 = FACE_OUTER_BOUND ( 'NONE', #159, .T. ) ;
#216 = CIRCLE ( 'NONE', #118, 6.500000000000000888 ) ;
#217 = DIRECTION ( 'NONE',  ( 3.491481338843133355E-15, -1.226656096638776648E-16, 1.000000000000000000 ) ) ;
#218 = ORGANIZATION ( 'UNSPECIFIED', 'UNSPECIFIED', '' ) ;
#219 = DIRECTION ( 'NONE',  ( -3.491481338843133355E-15, 1.224646799147353207E-16, -1.000000000000000000 ) ) ;
#220 = CARTESIAN_POINT ( 'NONE',  ( 2.897929511239800811E-13, -1.016456843292303150E-14, 83.00000000000000000 ) ) ;
#221 = CIRCLE ( 'NONE', #120, 6.999999999999992006 ) ;
#222 = CIRCLE ( 'NONE', #181, 7.000000000000000000 ) ;
#223 = CC_DESIGN_DATE_AND_TIME_ASSIGNMENT ( #91, #110, ( #61 ) ) ;
ENDSEC;
END-ISO-10303-21;
