ISO-10303-21;
HEADER;
FILE_DESCRIPTION (( 'STEP AP203' ),
    '1' );
FILE_NAME ('57224.step',
    '2021-11-01T12:23:39',
    ( '' ),
    ( '' ),
    'SwSTEP 2.0',
    'SolidWorks 2019',
    '' );
FILE_SCHEMA (( 'CONFIG_CONTROL_DESIGN' ));
ENDSEC;

DATA;
#1 = COORDINATED_UNIVERSAL_TIME_OFFSET ( 1, 0, .AHEAD. ) ;
#2 = DIRECTION ( 'NONE',  ( 0.0000000000000000000, 1.000000000000000000, 0.0000000000000000000 ) ) ;
#3 = CLOSED_SHELL ( 'NONE', ( #25, #220, #61, #185 ) ) ;
#4 = AXIS2_PLACEMENT_3D ( 'NONE', #10, #106, #175 ) ;
#5 = AXIS2_PLACEMENT_3D ( 'NONE', #208, #109, #22 ) ;
#6 = APPROVAL_STATUS ( 'not_yet_approved' ) ;
#7 = CYLINDRICAL_SURFACE ( 'NONE', #194, 5.999999999999992895 ) ;
#8 = CARTESIAN_POINT ( 'NONE',  ( 0.0000000000000000000, 0.0000000000000000000, 0.0000000000000000000 ) ) ;
#9 = COORDINATED_UNIVERSAL_TIME_OFFSET ( 1, 0, .AHEAD. ) ;
#10 = CARTESIAN_POINT ( 'NONE',  ( -2.484051184943620509E-30, 6.067287630905565669E-32, -7.114605360504906973E-16 ) ) ;
#11 = APPROVAL ( #223, 'UNSPECIFIED' ) ;
#12 = CALENDAR_DATE ( 2021, 1, 11 ) ;
#13 = COORDINATED_UNIVERSAL_TIME_OFFSET ( 1, 0, .AHEAD. ) ;
#14 = AXIS2_PLACEMENT_3D ( 'NONE', #91, #37, #141 ) ;
#15 = PERSON_AND_ORGANIZATION ( #176, #34 ) ;
#16 = EDGE_LOOP ( 'NONE', ( #81 ) ) ;
#17 = EDGE_LOOP ( 'NONE', ( #129 ) ) ;
#18 = DIRECTION ( 'NONE',  ( -4.333342374871280669E-31, -1.000000000000000000, -1.219727444046192488E-16 ) ) ;
#19 = PLANE ( 'NONE',  #32 ) ;
#20 = AXIS2_PLACEMENT_3D ( 'NONE', #193, #51, #18 ) ;
#21 = DIRECTION ( 'NONE',  ( -3.491481338843133355E-15, 1.224646799147353207E-16, -1.000000000000000000 ) ) ;
#22 = DIRECTION ( 'NONE',  ( 4.275831445896958607E-31, 1.000000000000000000, 1.224646799147353207E-16 ) ) ;
#23 = DIRECTION ( 'NONE',  ( -4.275831445896958607E-31, -1.000000000000000000, -1.224646799147353207E-16 ) ) ;
#24 = PRODUCT_RELATED_PRODUCT_CATEGORY ( 'detail', '', ( #30 ) ) ;
#25 = ADVANCED_FACE ( 'NONE', ( #46 ), #138, .F. ) ;
#26 =( NAMED_UNIT ( * ) SI_UNIT ( $, .STERADIAN. ) SOLID_ANGLE_UNIT ( ) );
#27 = CIRCLE ( 'NONE', #4, 5.800000000000002487 ) ;
#28 = PERSON_AND_ORGANIZATION ( #176, #34 ) ;
#29 = PERSON_AND_ORGANIZATION ( #176, #34 ) ;
#30 = PRODUCT ( '57224', '57224', '', ( #199 ) ) ;
#31 = ORIENTED_EDGE ( 'NONE', *, *, #41, .T. ) ;
#32 = AXIS2_PLACEMENT_3D ( 'NONE', #90, #88, #36 ) ;
#33 = CARTESIAN_POINT ( 'NONE',  ( -4.968102369887241017E-30, -5.800000000000002487, -1.422921072100981395E-15 ) ) ;
#34 = ORGANIZATION ( 'UNSPECIFIED', 'UNSPECIFIED', '' ) ;
#35 = CARTESIAN_POINT ( 'NONE',  ( 6.982962677686246003E-16, -2.453312193277548858E-17, 0.1999999999999994005 ) ) ;
#36 = DIRECTION ( 'NONE',  ( -4.275831445896958607E-31, -1.000000000000000000, -1.224646799147353207E-16 ) ) ;
#37 = DIRECTION ( 'NONE',  ( -3.491481338843133355E-15, 1.224646799147353207E-16, -1.000000000000000000 ) ) ;
#38 = EDGE_CURVE ( 'NONE', #191, #191, #27, .T. ) ;
#39 = CARTESIAN_POINT ( 'NONE',  ( 2.897929511239800811E-13, -1.016456843292303150E-14, 83.00000000000000000 ) ) ;
#40 = PERSON_AND_ORGANIZATION ( #176, #34 ) ;
#41 = EDGE_CURVE ( 'NONE', #150, #150, #211, .T. ) ;
#42 = DATE_TIME_ROLE ( 'classification_date' ) ;
#43 = CARTESIAN_POINT ( 'NONE',  ( 7.681258945454893382E-14, 5.999999999999991118, 22.00000000000000000 ) ) ;
#44 = EDGE_LOOP ( 'NONE', ( #222 ) ) ;
#45 = ADVANCED_FACE ( 'NONE', ( #192 ), #102, .F. ) ;
#46 = FACE_OUTER_BOUND ( 'NONE', #174, .T. ) ;
#47 = ORIENTED_EDGE ( 'NONE', *, *, #79, .F. ) ;
#48 = CARTESIAN_POINT ( 'NONE',  ( -1.068961779941895936E-30, 3.749413200789030543E-32, -3.061628220805801239E-16 ) ) ;
#49 = EDGE_CURVE ( 'NONE', #167, #167, #209, .T. ) ;
#50 = DIRECTION ( 'NONE',  ( -4.333342374871280669E-31, -1.000000000000000000, -1.219727444046192488E-16 ) ) ;
#51 = DIRECTION ( 'NONE',  ( 3.491481338843133355E-15, -1.226656096638776648E-16, 1.000000000000000000 ) ) ;
#52 = CC_DESIGN_DATE_AND_TIME_ASSIGNMENT ( #186, #42, ( #147 ) ) ;
#53 = FACE_OUTER_BOUND ( 'NONE', #44, .T. ) ;
#54 = CC_DESIGN_PERSON_AND_ORGANIZATION_ASSIGNMENT ( #119, #152, ( #156 ) ) ;
#55 = DIRECTION ( 'NONE',  ( 3.491481338843133355E-15, -1.226656096638776648E-16, 1.000000000000000000 ) ) ;
#56 = LOCAL_TIME ( 13, 23, 39.00000000000000000, #9 ) ;
#57 = DATE_AND_TIME ( #149, #89 ) ;
#58 = CIRCLE ( 'NONE', #135, 5.999999999999993783 ) ;
#59 = EDGE_LOOP ( 'NONE', ( #173 ) ) ;
#60 = PERSON_AND_ORGANIZATION_ROLE ( 'classification_officer' ) ;
#61 = ADVANCED_FACE ( 'NONE', ( #163, #68 ), #67, .T. ) ;
#62 = VERTEX_POINT ( 'NONE', #204 ) ;
#63 = COORDINATED_UNIVERSAL_TIME_OFFSET ( 1, 0, .AHEAD. ) ;
#64 = LOCAL_TIME ( 13, 23, 39.00000000000000000, #99 ) ;
#65 = FACE_OUTER_BOUND ( 'NONE', #17, .T. ) ;
#66 = APPROVAL ( #6, 'UNSPECIFIED' ) ;
#67 = CONICAL_SURFACE ( 'NONE', #200, 5.500000000000001776, 0.7853981633974482790 ) ;
#68 = FACE_BOUND ( 'NONE', #153, .T. ) ;
#69 = CARTESIAN_POINT ( 'NONE',  ( 7.681258945454893382E-14, 4.499279347985564613E-32, 22.00000000000000000 ) ) ;
#70 = DIRECTION ( 'NONE',  ( -3.491481338843133355E-15, 1.224646799147353207E-16, -1.000000000000000000 ) ) ;
#71 = CALENDAR_DATE ( 2021, 1, 11 ) ;
#72 = DIRECTION ( 'NONE',  ( 0.0000000000000000000, 1.000000000000000000, 0.0000000000000000000 ) ) ;
#73 =( LENGTH_UNIT ( ) NAMED_UNIT ( * ) SI_UNIT ( .MILLI., .METRE. ) );
#74 = EDGE_LOOP ( 'NONE', ( #31 ) ) ;
#75 = APPROVAL_PERSON_ORGANIZATION ( #202, #11, #169 ) ;
#76 = PERSON_AND_ORGANIZATION_ROLE ( 'creator' ) ;
#77 = CARTESIAN_POINT ( 'NONE',  ( 0.0000000000000000000, 0.0000000000000000000, 0.0000000000000000000 ) ) ;
#78 = ORIENTED_EDGE ( 'NONE', *, *, #162, .T. ) ;
#79 = EDGE_CURVE ( 'NONE', #62, #62, #58, .T. ) ;
#80 = PERSON_AND_ORGANIZATION ( #176, #34 ) ;
#81 = ORIENTED_EDGE ( 'NONE', *, *, #49, .T. ) ;
#82 = SHAPE_DEFINITION_REPRESENTATION ( #117, #131 ) ;
#83 = ORIENTED_EDGE ( 'NONE', *, *, #38, .F. ) ;
#84 = DIRECTION ( 'NONE',  ( 4.275831445896958607E-31, 1.000000000000000000, 1.224646799147353207E-16 ) ) ;
#85 = FACE_OUTER_BOUND ( 'NONE', #207, .T. ) ;
#86 = CC_DESIGN_PERSON_AND_ORGANIZATION_ASSIGNMENT ( #29, #76, ( #137 ) ) ;
#87 = CIRCLE ( 'NONE', #212, 6.000000000000000000 ) ;
#88 = DIRECTION ( 'NONE',  ( 3.491481338843133355E-15, -1.224646799147353207E-16, 1.000000000000000000 ) ) ;
#89 = LOCAL_TIME ( 13, 23, 39.00000000000000000, #13 ) ;
#90 = CARTESIAN_POINT ( 'NONE',  ( 7.681258945454893382E-14, 4.499279347985564613E-32, 22.00000000000000000 ) ) ;
#91 = CARTESIAN_POINT ( 'NONE',  ( 7.681258945454893382E-14, -2.694222958124176809E-15, 22.00000000000000000 ) ) ;
#92 = CC_DESIGN_APPROVAL ( #66, ( #156 ) ) ;
#93 = CARTESIAN_POINT ( 'NONE',  ( 2.880472104545584703E-13, 5.999999999999991118, 82.50000000000000000 ) ) ;
#94 = DATE_AND_TIME ( #115, #120 ) ;
#95 = CC_DESIGN_PERSON_AND_ORGANIZATION_ASSIGNMENT ( #28, #184, ( #137 ) ) ;
#96 = CLOSED_SHELL ( 'NONE', ( #210, #217, #190, #45 ) ) ;
#97 = DIRECTION ( 'NONE',  ( 0.0000000000000000000, 0.0000000000000000000, 1.000000000000000000 ) ) ;
#98 = CC_DESIGN_DATE_AND_TIME_ASSIGNMENT ( #57, #130, ( #156 ) ) ;
#99 = COORDINATED_UNIVERSAL_TIME_OFFSET ( 1, 0, .AHEAD. ) ;
#100 = CIRCLE ( 'NONE', #165, 5.500000000000001776 ) ;
#101 = EDGE_LOOP ( 'NONE', ( #83 ) ) ;
#102 = PLANE ( 'NONE',  #103 ) ;
#103 = AXIS2_PLACEMENT_3D ( 'NONE', #48, #155, #196 ) ;
#104 = CC_DESIGN_APPROVAL ( #11, ( #147 ) ) ;
#105 = CARTESIAN_POINT ( 'NONE',  ( 2.897929511239800811E-13, -1.016456843292303150E-14, 83.00000000000000000 ) ) ;
#106 = DIRECTION ( 'NONE',  ( 3.491481338843133355E-15, -1.226656096638776648E-16, 1.000000000000000000 ) ) ;
#107 =( GEOMETRIC_REPRESENTATION_CONTEXT ( 3 ) GLOBAL_UNCERTAINTY_ASSIGNED_CONTEXT ( ( #114 ) ) GLOBAL_UNIT_ASSIGNED_CONTEXT ( ( #73, #116, #26 ) ) REPRESENTATION_CONTEXT ( 'NONE', 'WORKASPACE' ) );
#108 = CARTESIAN_POINT ( 'NONE',  ( 7.681258945454893382E-14, -2.694222958124176809E-15, 22.00000000000000000 ) ) ;
#109 = DIRECTION ( 'NONE',  ( -3.491481338843133355E-15, 1.224646799147353207E-16, -1.000000000000000000 ) ) ;
#110 = AXIS2_PLACEMENT_3D ( 'NONE', #125, #70, #126 ) ;
#111 = MANIFOLD_SOLID_BREP ( 'Corps-Déplacer/Copier1[2]', #96 ) ;
#112 = PERSON_AND_ORGANIZATION ( #176, #34 ) ;
#113 = APPROVAL ( #145, 'UNSPECIFIED' ) ;
#114 = UNCERTAINTY_MEASURE_WITH_UNIT (LENGTH_MEASURE( 1.000000000000000082E-05 ), #73, 'distance_accuracy_value', 'NONE');
#115 = CALENDAR_DATE ( 2021, 1, 11 ) ;
#116 =( NAMED_UNIT ( * ) PLANE_ANGLE_UNIT ( ) SI_UNIT ( $, .RADIAN. ) );
#117 = PRODUCT_DEFINITION_SHAPE ( 'NONE', 'NONE',  #156 ) ;
#118 = APPROVAL_ROLE ( '' ) ;
#119 = PERSON_AND_ORGANIZATION ( #176, #34 ) ;
#120 = LOCAL_TIME ( 13, 23, 39.00000000000000000, #1 ) ;
#121 = DIRECTION ( 'NONE',  ( 4.275831445896958607E-31, 1.000000000000000000, 1.224646799147353207E-16 ) ) ;
#122 = LOCAL_TIME ( 13, 23, 39.00000000000000000, #63 ) ;
#123 = DIRECTION ( 'NONE',  ( 0.0000000000000000000, 1.000000000000000000, 0.0000000000000000000 ) ) ;
#124 = AXIS2_PLACEMENT_3D ( 'NONE', #69, #195, #23 ) ;
#125 = CARTESIAN_POINT ( 'NONE',  ( 2.880472104545584703E-13, -1.010333609296566392E-14, 82.50000000000000000 ) ) ;
#126 = DIRECTION ( 'NONE',  ( 0.0000000000000000000, 1.000000000000000000, 0.0000000000000000000 ) ) ;
#127 = APPROVAL_DATE_TIME ( #94, #113 ) ;
#128 = EDGE_LOOP ( 'NONE', ( #151 ) ) ;
#129 = ORIENTED_EDGE ( 'NONE', *, *, #49, .F. ) ;
#130 = DATE_TIME_ROLE ( 'creation_date' ) ;
#131 = ADVANCED_BREP_SHAPE_REPRESENTATION ( '57224', ( #189, #111, #178 ), #107 ) ;
#132 = ORIENTED_EDGE ( 'NONE', *, *, #41, .F. ) ;
#133 = DIRECTION ( 'NONE',  ( -3.491481338843133355E-15, 1.224646799147353207E-16, -1.000000000000000000 ) ) ;
#134 = CC_DESIGN_SECURITY_CLASSIFICATION ( #147, ( #137 ) ) ;
#135 = AXIS2_PLACEMENT_3D ( 'NONE', #108, #179, #2 ) ;
#136 = CC_DESIGN_PERSON_AND_ORGANIZATION_ASSIGNMENT ( #40, #203, ( #30 ) ) ;
#137 = PRODUCT_DEFINITION_FORMATION_WITH_SPECIFIED_SOURCE ( 'ANY', '', #30, .NOT_KNOWN. ) ;
#138 = PLANE ( 'NONE',  #124 ) ;
#139 = EDGE_CURVE ( 'NONE', #221, #221, #87, .T. ) ;
#140 = FACE_OUTER_BOUND ( 'NONE', #74, .T. ) ;
#141 = DIRECTION ( 'NONE',  ( 0.0000000000000000000, 1.000000000000000000, 0.0000000000000000000 ) ) ;
#142 = DATE_AND_TIME ( #71, #56 ) ;
#143 = PLANE ( 'NONE',  #5 ) ;
#144 = APPLICATION_PROTOCOL_DEFINITION ( 'international standard', 'config_control_design', 1994, #197 ) ;
#145 = APPROVAL_STATUS ( 'not_yet_approved' ) ;
#146 = CARTESIAN_POINT ( 'NONE',  ( 2.897929511239800811E-13, 5.499999999999991118, 83.00000000000000000 ) ) ;
#147 = SECURITY_CLASSIFICATION ( '', '', #166 ) ;
#148 = EDGE_LOOP ( 'NONE', ( #132 ) ) ;
#149 = CALENDAR_DATE ( 2021, 1, 11 ) ;
#150 = VERTEX_POINT ( 'NONE', #93 ) ;
#151 = ORIENTED_EDGE ( 'NONE', *, *, #139, .T. ) ;
#152 = PERSON_AND_ORGANIZATION_ROLE ( 'creator' ) ;
#153 = EDGE_LOOP ( 'NONE', ( #78 ) ) ;
#154 = CONICAL_SURFACE ( 'NONE', #20, 6.000000000000000000, 0.7853981633974428389 ) ;
#155 = DIRECTION ( 'NONE',  ( 3.491481338843133355E-15, -1.224646799147353207E-16, 1.000000000000000000 ) ) ;
#156 = PRODUCT_DEFINITION ( 'UNKNOWN', '', #137, #168 ) ;
#157 = FACE_OUTER_BOUND ( 'NONE', #171, .T. ) ;
#158 = APPLICATION_CONTEXT ( 'configuration controlled 3d designs of mechanical parts and assemblies' ) ;
#159 = AXIS2_PLACEMENT_3D ( 'NONE', #8, #133, #121 ) ;
#160 = FACE_OUTER_BOUND ( 'NONE', #128, .T. ) ;
#161 = CYLINDRICAL_SURFACE ( 'NONE', #159, 5.999999999999998224 ) ;
#162 = EDGE_CURVE ( 'NONE', #181, #181, #100, .T. ) ;
#163 = FACE_OUTER_BOUND ( 'NONE', #148, .T. ) ;
#164 = APPLICATION_PROTOCOL_DEFINITION ( 'international standard', 'config_control_design', 1994, #158 ) ;
#165 = AXIS2_PLACEMENT_3D ( 'NONE', #105, #215, #123 ) ;
#166 = SECURITY_CLASSIFICATION_LEVEL ( 'unclassified' ) ;
#167 = VERTEX_POINT ( 'NONE', #43 ) ;
#168 = DESIGN_CONTEXT ( 'detailed design', #158, 'design' ) ;
#169 = APPROVAL_ROLE ( '' ) ;
#170 = DIRECTION ( 'NONE',  ( 1.000000000000000000, 0.0000000000000000000, 0.0000000000000000000 ) ) ;
#171 = EDGE_LOOP ( 'NONE', ( #183 ) ) ;
#172 = APPROVAL_DATE_TIME ( #218, #11 ) ;
#173 = ORIENTED_EDGE ( 'NONE', *, *, #38, .T. ) ;
#174 = EDGE_LOOP ( 'NONE', ( #206 ) ) ;
#175 = DIRECTION ( 'NONE',  ( -4.282846870592447371E-31, -1.000000000000000000, -1.226656096638776648E-16 ) ) ;
#176 = PERSON ( 'UNSPECIFIED', 'UNSPECIFIED', 'UNSPECIFIED', ('UNSPECIFIED'), ('UNSPECIFIED'), ('UNSPECIFIED') ) ;
#177 = FACE_OUTER_BOUND ( 'NONE', #16, .T. ) ;
#178 = AXIS2_PLACEMENT_3D ( 'NONE', #77, #97, #170 ) ;
#179 = DIRECTION ( 'NONE',  ( -3.491481338843133355E-15, 1.224646799147353207E-16, -1.000000000000000000 ) ) ;
#180 = FACE_BOUND ( 'NONE', #59, .T. ) ;
#181 = VERTEX_POINT ( 'NONE', #146 ) ;
#182 = CALENDAR_DATE ( 2021, 1, 11 ) ;
#183 = ORIENTED_EDGE ( 'NONE', *, *, #162, .F. ) ;
#184 = PERSON_AND_ORGANIZATION_ROLE ( 'design_supplier' ) ;
#185 = ADVANCED_FACE ( 'NONE', ( #157 ), #143, .F. ) ;
#186 = DATE_AND_TIME ( #182, #122 ) ;
#187 = APPROVAL_ROLE ( '' ) ;
#188 = APPROVAL_PERSON_ORGANIZATION ( #112, #66, #118 ) ;
#189 = MANIFOLD_SOLID_BREP ( 'Corps-Déplacer/Copier1[1]', #3 ) ;
#190 = ADVANCED_FACE ( 'NONE', ( #180, #53 ), #154, .T. ) ;
#191 = VERTEX_POINT ( 'NONE', #33 ) ;
#192 = FACE_OUTER_BOUND ( 'NONE', #101, .T. ) ;
#193 = CARTESIAN_POINT ( 'NONE',  ( 6.982962677686246003E-16, -2.453312193277548858E-17, 0.1999999999999994005 ) ) ;
#194 = AXIS2_PLACEMENT_3D ( 'NONE', #214, #21, #84 ) ;
#195 = DIRECTION ( 'NONE',  ( 3.491481338843133355E-15, -1.224646799147353207E-16, 1.000000000000000000 ) ) ;
#196 = DIRECTION ( 'NONE',  ( -4.275831445896958607E-31, -1.000000000000000000, -1.224646799147353207E-16 ) ) ;
#197 = APPLICATION_CONTEXT ( 'configuration controlled 3d designs of mechanical parts and assemblies' ) ;
#198 = CC_DESIGN_PERSON_AND_ORGANIZATION_ASSIGNMENT ( #80, #60, ( #147 ) ) ;
#199 = MECHANICAL_CONTEXT ( 'NONE', #197, 'mechanical' ) ;
#200 = AXIS2_PLACEMENT_3D ( 'NONE', #39, #213, #72 ) ;
#201 = CARTESIAN_POINT ( 'NONE',  ( 6.982962677686220365E-16, -6.000000000000000000, 0.1999999999999986788 ) ) ;
#202 = PERSON_AND_ORGANIZATION ( #176, #34 ) ;
#203 = PERSON_AND_ORGANIZATION_ROLE ( 'design_owner' ) ;
#204 = CARTESIAN_POINT ( 'NONE',  ( 7.681258945454893382E-14, 5.999999999999991118, 22.00000000000000000 ) ) ;
#205 = CC_DESIGN_APPROVAL ( #113, ( #137 ) ) ;
#206 = ORIENTED_EDGE ( 'NONE', *, *, #79, .T. ) ;
#207 = EDGE_LOOP ( 'NONE', ( #47 ) ) ;
#208 = CARTESIAN_POINT ( 'NONE',  ( 2.897929511239800811E-13, 4.124339402320094190E-32, 83.00000000000000000 ) ) ;
#209 = CIRCLE ( 'NONE', #14, 5.999999999999993783 ) ;
#210 = ADVANCED_FACE ( 'NONE', ( #177, #160 ), #7, .T. ) ;
#211 = CIRCLE ( 'NONE', #110, 6.000000000000001776 ) ;
#212 = AXIS2_PLACEMENT_3D ( 'NONE', #35, #55, #50 ) ;
#213 = DIRECTION ( 'NONE',  ( -3.491481338843133355E-15, 1.224646799147353207E-16, -1.000000000000000000 ) ) ;
#214 = CARTESIAN_POINT ( 'NONE',  ( 0.0000000000000000000, 0.0000000000000000000, 0.0000000000000000000 ) ) ;
#215 = DIRECTION ( 'NONE',  ( -3.491481338843133355E-15, 1.224646799147353207E-16, -1.000000000000000000 ) ) ;
#216 = APPROVAL_DATE_TIME ( #142, #66 ) ;
#217 = ADVANCED_FACE ( 'NONE', ( #65 ), #19, .T. ) ;
#218 = DATE_AND_TIME ( #12, #64 ) ;
#219 = APPROVAL_PERSON_ORGANIZATION ( #15, #113, #187 ) ;
#220 = ADVANCED_FACE ( 'NONE', ( #85, #140 ), #161, .T. ) ;
#221 = VERTEX_POINT ( 'NONE', #201 ) ;
#222 = ORIENTED_EDGE ( 'NONE', *, *, #139, .F. ) ;
#223 = APPROVAL_STATUS ( 'not_yet_approved' ) ;
ENDSEC;
END-ISO-10303-21;
