ISO-10303-21;
HEADER;
FILE_DESCRIPTION (( 'STEP AP203' ),
    '1' );
FILE_NAME ('57223.step',
    '2021-11-01T12:23:39',
    ( '' ),
    ( '' ),
    'SwSTEP 2.0',
    'SolidWorks 2019',
    '' );
FILE_SCHEMA (( 'CONFIG_CONTROL_DESIGN' ));
ENDSEC;

DATA;
#1 = CARTESIAN_POINT ( 'NONE',  ( 2.496409157272839907E-13, -8.756224613903572559E-15, 71.49999999999998579 ) ) ;
#2 = AXIS2_PLACEMENT_3D ( 'NONE', #87, #133, #34 ) ;
#3 = PLANE ( 'NONE',  #17 ) ;
#4 = FACE_OUTER_BOUND ( 'NONE', #157, .T. ) ;
#5 = ADVANCED_FACE ( 'NONE', ( #102, #4 ), #103, .T. ) ;
#6 = CC_DESIGN_APPROVAL ( #27, ( #68 ) ) ;
#7 = MECHANICAL_CONTEXT ( 'NONE', #23, 'mechanical' ) ;
#8 = PERSON_AND_ORGANIZATION_ROLE ( 'creator' ) ;
#9 = APPROVAL_STATUS ( 'not_yet_approved' ) ;
#10 = VERTEX_POINT ( 'NONE', #60 ) ;
#11 = PERSON_AND_ORGANIZATION ( #192, #122 ) ;
#12 = APPROVAL_PERSON_ORGANIZATION ( #41, #27, #219 ) ;
#13 = CC_DESIGN_PERSON_AND_ORGANIZATION_ASSIGNMENT ( #31, #146, ( #47 ) ) ;
#14 = EDGE_LOOP ( 'NONE', ( #196 ) ) ;
#15 = SECURITY_CLASSIFICATION_LEVEL ( 'unclassified' ) ;
#16 = AXIS2_PLACEMENT_3D ( 'NONE', #65, #183, #134 ) ;
#17 = AXIS2_PLACEMENT_3D ( 'NONE', #67, #121, #164 ) ;
#18 = CALENDAR_DATE ( 2021, 1, 11 ) ;
#19 = CARTESIAN_POINT ( 'NONE',  ( 2.513866563967056016E-13, 3.374459510989167028E-32, 72.00000000000000000 ) ) ;
#20 = CONICAL_SURFACE ( 'NONE', #217, 4.500000000000000888, 0.7853981633974344012 ) ;
#21 = MANIFOLD_SOLID_BREP ( 'Corps-Déplacer/Copier1[2]', #181 ) ;
#22 = LOCAL_TIME ( 13, 23, 39.00000000000000000, #140 ) ;
#23 = APPLICATION_CONTEXT ( 'configuration controlled 3d designs of mechanical parts and assemblies' ) ;
#24 = DATE_AND_TIME ( #108, #212 ) ;
#25 = DIRECTION ( 'NONE',  ( 0.0000000000000000000, 0.0000000000000000000, 1.000000000000000000 ) ) ;
#26 = AXIS2_PLACEMENT_3D ( 'NONE', #167, #147, #149 ) ;
#27 = APPROVAL ( #9, 'UNSPECIFIED' ) ;
#28 = ORIENTED_EDGE ( 'NONE', *, *, #171, .F. ) ;
#29 = PERSON_AND_ORGANIZATION ( #192, #122 ) ;
#30 = ORIENTED_EDGE ( 'NONE', *, *, #204, .F. ) ;
#31 = PERSON_AND_ORGANIZATION ( #192, #122 ) ;
#32 = CARTESIAN_POINT ( 'NONE',  ( 0.0000000000000000000, 0.0000000000000000000, 0.0000000000000000000 ) ) ;
#33 = COORDINATED_UNIVERSAL_TIME_OFFSET ( 1, 0, .AHEAD. ) ;
#34 = DIRECTION ( 'NONE',  ( 0.0000000000000000000, 1.000000000000000000, 0.0000000000000000000 ) ) ;
#35 = FACE_OUTER_BOUND ( 'NONE', #142, .T. ) ;
#36 = DIRECTION ( 'NONE',  ( -3.491481338843133355E-15, 1.224646799147353207E-16, -1.000000000000000000 ) ) ;
#37 = CARTESIAN_POINT ( 'NONE',  ( -2.055766497884375859E-30, 4.562602451484485018E-32, -5.887949263866130078E-16 ) ) ;
#38 = CC_DESIGN_DATE_AND_TIME_ASSIGNMENT ( #99, #160, ( #57 ) ) ;
#39 = CIRCLE ( 'NONE', #2, 4.999999999999994671 ) ;
#40 = DIRECTION ( 'NONE',  ( -4.275831445896958607E-31, -1.000000000000000000, -1.224646799147353207E-16 ) ) ;
#41 = PERSON_AND_ORGANIZATION ( #192, #122 ) ;
#42 = APPLICATION_PROTOCOL_DEFINITION ( 'international standard', 'config_control_design', 1994, #105 ) ;
#43 = ORIENTED_EDGE ( 'NONE', *, *, #163, .F. ) ;
#44 = DATE_AND_TIME ( #76, #22 ) ;
#45 = ADVANCED_FACE ( 'NONE', ( #55 ), #71, .F. ) ;
#46 = COORDINATED_UNIVERSAL_TIME_OFFSET ( 1, 0, .AHEAD. ) ;
#47 = PRODUCT_DEFINITION_FORMATION_WITH_SPECIFIED_SOURCE ( 'ANY', '', #215, .NOT_KNOWN. ) ;
#48 = APPROVAL_DATE_TIME ( #223, #93 ) ;
#49 = EDGE_LOOP ( 'NONE', ( #43 ) ) ;
#50 = CARTESIAN_POINT ( 'NONE',  ( 6.633814543801952113E-14, -2.326828918379970970E-15, 19.00000000000000000 ) ) ;
#51 = DIRECTION ( 'NONE',  ( 0.0000000000000000000, 1.000000000000000000, 0.0000000000000000000 ) ) ;
#52 = DIRECTION ( 'NONE',  ( -3.491481338843133355E-15, 1.224646799147353207E-16, -1.000000000000000000 ) ) ;
#53 = DIRECTION ( 'NONE',  ( -3.491481338843133355E-15, 1.224646799147353207E-16, -1.000000000000000000 ) ) ;
#54 = DIRECTION ( 'NONE',  ( 0.0000000000000000000, 1.000000000000000000, 0.0000000000000000000 ) ) ;
#55 = FACE_OUTER_BOUND ( 'NONE', #172, .T. ) ;
#56 = AXIS2_PLACEMENT_3D ( 'NONE', #50, #190, #206 ) ;
#57 = SECURITY_CLASSIFICATION ( '', '', #15 ) ;
#58 = PRODUCT_RELATED_PRODUCT_CATEGORY ( 'detail', '', ( #215 ) ) ;
#59 = EDGE_LOOP ( 'NONE', ( #203 ) ) ;
#60 = CARTESIAN_POINT ( 'NONE',  ( 2.496409157272839907E-13, 4.999999999999992006, 71.49999999999998579 ) ) ;
#61 = ORIENTED_EDGE ( 'NONE', *, *, #171, .T. ) ;
#62 = CARTESIAN_POINT ( 'NONE',  ( 6.982962677686225295E-16, -5.000000000000000000, 0.1999999999999987899 ) ) ;
#63 = EDGE_LOOP ( 'NONE', ( #77 ) ) ;
#64 = APPROVAL_STATUS ( 'not_yet_approved' ) ;
#65 = CARTESIAN_POINT ( 'NONE',  ( 0.0000000000000000000, 0.0000000000000000000, 0.0000000000000000000 ) ) ;
#66 = AXIS2_PLACEMENT_3D ( 'NONE', #92, #25, #179 ) ;
#67 = CARTESIAN_POINT ( 'NONE',  ( 6.633814543801952113E-14, 3.749399456654636904E-32, 19.00000000000000000 ) ) ;
#68 = PRODUCT_DEFINITION ( 'UNKNOWN', '', #47, #115 ) ;
#69 = FACE_OUTER_BOUND ( 'NONE', #59, .T. ) ;
#70 = FACE_BOUND ( 'NONE', #144, .T. ) ;
#71 = PLANE ( 'NONE',  #136 ) ;
#72 = CARTESIAN_POINT ( 'NONE',  ( 6.633814543801952113E-14, 3.749399456654636904E-32, 19.00000000000000000 ) ) ;
#73 = CC_DESIGN_PERSON_AND_ORGANIZATION_ASSIGNMENT ( #29, #202, ( #57 ) ) ;
#74 = CIRCLE ( 'NONE', #56, 4.999999999999994671 ) ;
#75 = EDGE_LOOP ( 'NONE', ( #30 ) ) ;
#76 = CALENDAR_DATE ( 2021, 1, 11 ) ;
#77 = ORIENTED_EDGE ( 'NONE', *, *, #204, .T. ) ;
#78 =( NAMED_UNIT ( * ) SI_UNIT ( $, .STERADIAN. ) SOLID_ANGLE_UNIT ( ) );
#79 = CALENDAR_DATE ( 2021, 1, 11 ) ;
#80 = AXIS2_PLACEMENT_3D ( 'NONE', #37, #191, #127 ) ;
#81 = ORIENTED_EDGE ( 'NONE', *, *, #141, .T. ) ;
#82 = ADVANCED_FACE ( 'NONE', ( #104, #69 ), #124, .T. ) ;
#83 = FACE_BOUND ( 'NONE', #63, .T. ) ;
#84 = PERSON_AND_ORGANIZATION ( #192, #122 ) ;
#85 = AXIS2_PLACEMENT_3D ( 'NONE', #32, #166, #185 ) ;
#86 = CIRCLE ( 'NONE', #126, 4.500000000000000888 ) ;
#87 = CARTESIAN_POINT ( 'NONE',  ( 6.633814543801952113E-14, -2.326828918379970970E-15, 19.00000000000000000 ) ) ;
#88 = FACE_OUTER_BOUND ( 'NONE', #49, .T. ) ;
#89 = CIRCLE ( 'NONE', #26, 5.000000000000000000 ) ;
#90 = PRODUCT_DEFINITION_SHAPE ( 'NONE', 'NONE',  #68 ) ;
#91 = FACE_OUTER_BOUND ( 'NONE', #75, .T. ) ;
#92 = CARTESIAN_POINT ( 'NONE',  ( 0.0000000000000000000, 0.0000000000000000000, 0.0000000000000000000 ) ) ;
#93 = APPROVAL ( #143, 'UNSPECIFIED' ) ;
#94 = APPROVAL_PERSON_ORGANIZATION ( #11, #222, #120 ) ;
#95 = APPROVAL_DATE_TIME ( #24, #27 ) ;
#96 = CALENDAR_DATE ( 2021, 1, 11 ) ;
#97 =( LENGTH_UNIT ( ) NAMED_UNIT ( * ) SI_UNIT ( .MILLI., .METRE. ) );
#98 = CC_DESIGN_SECURITY_CLASSIFICATION ( #57, ( #47 ) ) ;
#99 = DATE_AND_TIME ( #18, #208 ) ;
#100 = CC_DESIGN_DATE_AND_TIME_ASSIGNMENT ( #44, #158, ( #68 ) ) ;
#101 = DATE_AND_TIME ( #79, #130 ) ;
#102 = FACE_OUTER_BOUND ( 'NONE', #14, .T. ) ;
#103 = CYLINDRICAL_SURFACE ( 'NONE', #85, 4.999999999999997335 ) ;
#104 = FACE_OUTER_BOUND ( 'NONE', #182, .T. ) ;
#105 = APPLICATION_CONTEXT ( 'configuration controlled 3d designs of mechanical parts and assemblies' ) ;
#106 = FACE_OUTER_BOUND ( 'NONE', #112, .T. ) ;
#107 = ADVANCED_FACE ( 'NONE', ( #83, #35 ), #199, .T. ) ;
#108 = CALENDAR_DATE ( 2021, 1, 11 ) ;
#109 = COORDINATED_UNIVERSAL_TIME_OFFSET ( 1, 0, .AHEAD. ) ;
#110 = EDGE_LOOP ( 'NONE', ( #28 ) ) ;
#111 = PERSON_AND_ORGANIZATION ( #192, #122 ) ;
#112 = EDGE_LOOP ( 'NONE', ( #81 ) ) ;
#113 = AXIS2_PLACEMENT_3D ( 'NONE', #72, #145, #177 ) ;
#114 = ORIENTED_EDGE ( 'NONE', *, *, #125, .F. ) ;
#115 = DESIGN_CONTEXT ( 'detailed design', #105, 'design' ) ;
#116 = COORDINATED_UNIVERSAL_TIME_OFFSET ( 1, 0, .AHEAD. ) ;
#117 = ADVANCED_FACE ( 'NONE', ( #88, #70 ), #20, .T. ) ;
#118 = CC_DESIGN_APPROVAL ( #93, ( #47 ) ) ;
#119 = DIRECTION ( 'NONE',  ( 4.275831445896958607E-31, 1.000000000000000000, 1.224646799147353207E-16 ) ) ;
#120 = APPROVAL_ROLE ( '' ) ;
#121 = DIRECTION ( 'NONE',  ( 3.491481338843133355E-15, -1.224646799147353207E-16, 1.000000000000000000 ) ) ;
#122 = ORGANIZATION ( 'UNSPECIFIED', 'UNSPECIFIED', '' ) ;
#123 = DIRECTION ( 'NONE',  ( -4.237045877651918877E-31, -1.000000000000000000, -1.246832498358330099E-16 ) ) ;
#124 = CYLINDRICAL_SURFACE ( 'NONE', #16, 4.999999999999993783 ) ;
#125 = EDGE_CURVE ( 'NONE', #201, #201, #89, .T. ) ;
#126 = AXIS2_PLACEMENT_3D ( 'NONE', #187, #210, #148 ) ;
#127 = DIRECTION ( 'NONE',  ( -4.282846870592449122E-31, -1.000000000000000000, -1.226656096638776401E-16 ) ) ;
#128 = PERSON_AND_ORGANIZATION_ROLE ( 'design_owner' ) ;
#129 = VERTEX_POINT ( 'NONE', #159 ) ;
#130 = LOCAL_TIME ( 13, 23, 39.00000000000000000, #33 ) ;
#131 = CC_DESIGN_PERSON_AND_ORGANIZATION_ASSIGNMENT ( #154, #8, ( #68 ) ) ;
#132 = APPROVAL_DATE_TIME ( #101, #222 ) ;
#133 = DIRECTION ( 'NONE',  ( -3.491481338843133355E-15, 1.224646799147353207E-16, -1.000000000000000000 ) ) ;
#134 = DIRECTION ( 'NONE',  ( 4.275831445896959482E-31, 1.000000000000000000, 1.224646799147353207E-16 ) ) ;
#135 = ADVANCED_FACE ( 'NONE', ( #205 ), #3, .T. ) ;
#136 = AXIS2_PLACEMENT_3D ( 'NONE', #19, #53, #119 ) ;
#137 = CIRCLE ( 'NONE', #156, 5.000000000000000888 ) ;
#138 =( NAMED_UNIT ( * ) PLANE_ANGLE_UNIT ( ) SI_UNIT ( $, .RADIAN. ) );
#139 = CARTESIAN_POINT ( 'NONE',  ( 6.633814543801952113E-14, 4.999999999999992006, 19.00000000000000000 ) ) ;
#140 = COORDINATED_UNIVERSAL_TIME_OFFSET ( 1, 0, .AHEAD. ) ;
#141 = EDGE_CURVE ( 'NONE', #170, #170, #39, .T. ) ;
#142 = EDGE_LOOP ( 'NONE', ( #114 ) ) ;
#143 = APPROVAL_STATUS ( 'not_yet_approved' ) ;
#144 = EDGE_LOOP ( 'NONE', ( #176 ) ) ;
#145 = DIRECTION ( 'NONE',  ( 3.491481338843133355E-15, -1.224646799147353207E-16, 1.000000000000000000 ) ) ;
#146 = PERSON_AND_ORGANIZATION_ROLE ( 'creator' ) ;
#147 = DIRECTION ( 'NONE',  ( 3.491481338843133355E-15, -1.226656096638776648E-16, 1.000000000000000000 ) ) ;
#148 = DIRECTION ( 'NONE',  ( 0.0000000000000000000, 1.000000000000000000, 0.0000000000000000000 ) ) ;
#149 = DIRECTION ( 'NONE',  ( -4.237045877651918877E-31, -1.000000000000000000, -1.246832498358330099E-16 ) ) ;
#150 = PLANE ( 'NONE',  #200 ) ;
#151 = CC_DESIGN_PERSON_AND_ORGANIZATION_ASSIGNMENT ( #214, #128, ( #215 ) ) ;
#152 = CARTESIAN_POINT ( 'NONE',  ( -8.551702076470480934E-31, 2.999533309458101739E-32, -2.449304821232125005E-16 ) ) ;
#153 =( GEOMETRIC_REPRESENTATION_CONTEXT ( 3 ) GLOBAL_UNCERTAINTY_ASSIGNED_CONTEXT ( ( #178 ) ) GLOBAL_UNIT_ASSIGNED_CONTEXT ( ( #97, #138, #78 ) ) REPRESENTATION_CONTEXT ( 'NONE', 'WORKASPACE' ) );
#154 = PERSON_AND_ORGANIZATION ( #192, #122 ) ;
#155 = EDGE_CURVE ( 'NONE', #195, #195, #86, .T. ) ;
#156 = AXIS2_PLACEMENT_3D ( 'NONE', #1, #52, #54 ) ;
#157 = EDGE_LOOP ( 'NONE', ( #218 ) ) ;
#158 = DATE_TIME_ROLE ( 'creation_date' ) ;
#159 = CARTESIAN_POINT ( 'NONE',  ( 6.633814543801952113E-14, 4.999999999999992006, 19.00000000000000000 ) ) ;
#160 = DATE_TIME_ROLE ( 'classification_date' ) ;
#161 = AXIS2_PLACEMENT_3D ( 'NONE', #207, #209, #123 ) ;
#162 = MANIFOLD_SOLID_BREP ( 'Corps-Déplacer/Copier1[1]', #174 ) ;
#163 = EDGE_CURVE ( 'NONE', #10, #10, #137, .T. ) ;
#164 = DIRECTION ( 'NONE',  ( -4.275831445896958607E-31, -1.000000000000000000, -1.224646799147353207E-16 ) ) ;
#165 = CIRCLE ( 'NONE', #80, 4.800000000000002487 ) ;
#166 = DIRECTION ( 'NONE',  ( -3.491481338843133355E-15, 1.224646799147353207E-16, -1.000000000000000000 ) ) ;
#167 = CARTESIAN_POINT ( 'NONE',  ( 6.982962677686246003E-16, -2.453312193277548858E-17, 0.1999999999999994005 ) ) ;
#168 = PLANE ( 'NONE',  #113 ) ;
#169 = DIRECTION ( 'NONE',  ( 3.491481338843133355E-15, -1.224646799147353207E-16, 1.000000000000000000 ) ) ;
#170 = VERTEX_POINT ( 'NONE', #139 ) ;
#171 = EDGE_CURVE ( 'NONE', #129, #129, #74, .T. ) ;
#172 = EDGE_LOOP ( 'NONE', ( #197 ) ) ;
#173 = CARTESIAN_POINT ( 'NONE',  ( 2.513866563967056016E-13, 4.499999999999992006, 72.00000000000000000 ) ) ;
#174 = CLOSED_SHELL ( 'NONE', ( #211, #5, #117, #45 ) ) ;
#175 = CC_DESIGN_APPROVAL ( #222, ( #57 ) ) ;
#176 = ORIENTED_EDGE ( 'NONE', *, *, #155, .T. ) ;
#177 = DIRECTION ( 'NONE',  ( -4.275831445896958607E-31, -1.000000000000000000, -1.224646799147353207E-16 ) ) ;
#178 = UNCERTAINTY_MEASURE_WITH_UNIT (LENGTH_MEASURE( 1.000000000000000082E-05 ), #97, 'distance_accuracy_value', 'NONE');
#179 = DIRECTION ( 'NONE',  ( 1.000000000000000000, 0.0000000000000000000, 0.0000000000000000000 ) ) ;
#180 = PERSON_AND_ORGANIZATION_ROLE ( 'design_supplier' ) ;
#181 = CLOSED_SHELL ( 'NONE', ( #82, #135, #107, #184 ) ) ;
#182 = EDGE_LOOP ( 'NONE', ( #61 ) ) ;
#183 = DIRECTION ( 'NONE',  ( -3.491481338843133355E-15, 1.224646799147353207E-16, -1.000000000000000000 ) ) ;
#184 = ADVANCED_FACE ( 'NONE', ( #91 ), #150, .F. ) ;
#185 = DIRECTION ( 'NONE',  ( 4.275831445896959482E-31, 1.000000000000000000, 1.224646799147353207E-16 ) ) ;
#186 = LOCAL_TIME ( 13, 23, 39.00000000000000000, #46 ) ;
#187 = CARTESIAN_POINT ( 'NONE',  ( 2.513866563967056016E-13, -8.817456953860941711E-15, 72.00000000000000000 ) ) ;
#188 = CARTESIAN_POINT ( 'NONE',  ( 2.513866563967056016E-13, -8.817456953860941711E-15, 72.00000000000000000 ) ) ;
#189 = APPROVAL_PERSON_ORGANIZATION ( #111, #93, #220 ) ;
#190 = DIRECTION ( 'NONE',  ( -3.491481338843133355E-15, 1.224646799147353207E-16, -1.000000000000000000 ) ) ;
#191 = DIRECTION ( 'NONE',  ( 3.491481338843133355E-15, -1.226656096638776648E-16, 1.000000000000000000 ) ) ;
#192 = PERSON ( 'UNSPECIFIED', 'UNSPECIFIED', 'UNSPECIFIED', ('UNSPECIFIED'), ('UNSPECIFIED'), ('UNSPECIFIED') ) ;
#193 = VERTEX_POINT ( 'NONE', #198 ) ;
#194 = CC_DESIGN_PERSON_AND_ORGANIZATION_ASSIGNMENT ( #84, #180, ( #47 ) ) ;
#195 = VERTEX_POINT ( 'NONE', #173 ) ;
#196 = ORIENTED_EDGE ( 'NONE', *, *, #141, .F. ) ;
#197 = ORIENTED_EDGE ( 'NONE', *, *, #155, .F. ) ;
#198 = CARTESIAN_POINT ( 'NONE',  ( -4.111532995768752419E-30, -4.800000000000002487, -1.177589852773226016E-15 ) ) ;
#199 = CONICAL_SURFACE ( 'NONE', #161, 5.000000000000000000, 0.7853981633974430610 ) ;
#200 = AXIS2_PLACEMENT_3D ( 'NONE', #152, #169, #40 ) ;
#201 = VERTEX_POINT ( 'NONE', #62 ) ;
#202 = PERSON_AND_ORGANIZATION_ROLE ( 'classification_officer' ) ;
#203 = ORIENTED_EDGE ( 'NONE', *, *, #125, .T. ) ;
#204 = EDGE_CURVE ( 'NONE', #193, #193, #165, .T. ) ;
#205 = FACE_OUTER_BOUND ( 'NONE', #110, .T. ) ;
#206 = DIRECTION ( 'NONE',  ( 0.0000000000000000000, 1.000000000000000000, 0.0000000000000000000 ) ) ;
#207 = CARTESIAN_POINT ( 'NONE',  ( 6.982962677686246003E-16, -2.453312193277548858E-17, 0.1999999999999994005 ) ) ;
#208 = LOCAL_TIME ( 13, 23, 39.00000000000000000, #116 ) ;
#209 = DIRECTION ( 'NONE',  ( 3.491481338843133355E-15, -1.226656096638776648E-16, 1.000000000000000000 ) ) ;
#210 = DIRECTION ( 'NONE',  ( -3.491481338843133355E-15, 1.224646799147353207E-16, -1.000000000000000000 ) ) ;
#211 = ADVANCED_FACE ( 'NONE', ( #106 ), #168, .F. ) ;
#212 = LOCAL_TIME ( 13, 23, 39.00000000000000000, #109 ) ;
#213 = ADVANCED_BREP_SHAPE_REPRESENTATION ( '57223', ( #162, #21, #66 ), #153 ) ;
#214 = PERSON_AND_ORGANIZATION ( #192, #122 ) ;
#215 = PRODUCT ( '57223', '57223', '', ( #7 ) ) ;
#216 = APPLICATION_PROTOCOL_DEFINITION ( 'international standard', 'config_control_design', 1994, #23 ) ;
#217 = AXIS2_PLACEMENT_3D ( 'NONE', #188, #36, #51 ) ;
#218 = ORIENTED_EDGE ( 'NONE', *, *, #163, .T. ) ;
#219 = APPROVAL_ROLE ( '' ) ;
#220 = APPROVAL_ROLE ( '' ) ;
#221 = SHAPE_DEFINITION_REPRESENTATION ( #90, #213 ) ;
#222 = APPROVAL ( #64, 'UNSPECIFIED' ) ;
#223 = DATE_AND_TIME ( #96, #186 ) ;
ENDSEC;
END-ISO-10303-21;
