ISO-10303-21;
HEADER;
FILE_DESCRIPTION (( 'STEP AP203' ),
    '1' );
FILE_NAME ('57222.step',
    '2021-11-01T12:23:38',
    ( '' ),
    ( '' ),
    'SwSTEP 2.0',
    'SolidWorks 2019',
    '' );
FILE_SCHEMA (( 'CONFIG_CONTROL_DESIGN' ));
ENDSEC;

DATA;
#1 = LOCAL_TIME ( 13, 23, 38.00000000000000000, #110 ) ;
#2 = ORIENTED_EDGE ( 'NONE', *, *, #204, .T. ) ;
#3 = DIRECTION ( 'NONE',  ( 0.0000000000000000000, -1.000000000000000000, 0.0000000000000000000 ) ) ;
#4 = PLANE ( 'NONE',  #123 ) ;
#5 = APPROVAL_ROLE ( '' ) ;
#6 = CARTESIAN_POINT ( 'NONE',  ( 0.0000000000000000000, 0.0000000000000000000, 0.0000000000000000000 ) ) ;
#7 = DIRECTION ( 'NONE',  ( 3.491481338843133355E-15, -1.227517819005651059E-16, 1.000000000000000000 ) ) ;
#8 = DIRECTION ( 'NONE',  ( 4.275831445896958607E-31, 1.000000000000000000, 1.224646799147353207E-16 ) ) ;
#9 = CIRCLE ( 'NONE', #130, 4.500000000000000888 ) ;
#10 = DIRECTION ( 'NONE',  ( 3.491481338843133355E-15, -1.224646799147353207E-16, 1.000000000000000000 ) ) ;
#11 = PLANE ( 'NONE',  #232 ) ;
#12 = CARTESIAN_POINT ( 'NONE',  ( 6.982962677686228254E-16, -4.750000000000000000, 0.1999999999999989009 ) ) ;
#13 = VERTEX_POINT ( 'NONE', #137 ) ;
#14 = AXIS2_PLACEMENT_3D ( 'NONE', #87, #129, #64 ) ;
#15 = LOCAL_TIME ( 13, 23, 38.00000000000000000, #38 ) ;
#16 = CARTESIAN_POINT ( 'NONE',  ( 7.326633893537088163E-14, 4.999999999999995559, 20.98431348329845036 ) ) ;
#17 = ADVANCED_FACE ( 'NONE', ( #66 ), #4, .F. ) ;
#18 = LOCAL_TIME ( 13, 23, 38.00000000000000000, #67 ) ;
#19 = VERTEX_POINT ( 'NONE', #35 ) ;
#20 = EDGE_LOOP ( 'NONE', ( #150 ) ) ;
#21 = TOROIDAL_SURFACE ( 'NONE', #222, 12.74999999999999645, 8.000000000000000000 ) ;
#22 = ORIENTED_EDGE ( 'NONE', *, *, #204, .F. ) ;
#23 = EDGE_LOOP ( 'NONE', ( #41 ) ) ;
#24 = CC_DESIGN_PERSON_AND_ORGANIZATION_ASSIGNMENT ( #202, #198, ( #241 ) ) ;
#25 = FACE_OUTER_BOUND ( 'NONE', #185, .T. ) ;
#26 = PERSON_AND_ORGANIZATION ( #96, #73 ) ;
#27 = DIRECTION ( 'NONE',  ( -3.491481338843133355E-15, 1.224646799147353207E-16, -1.000000000000000000 ) ) ;
#28 = CALENDAR_DATE ( 2021, 1, 11 ) ;
#29 = MANIFOLD_SOLID_BREP ( 'Corps-Déplacer/Copier1[2]', #164 ) ;
#30 = EDGE_CURVE ( 'NONE', #57, #57, #63, .T. ) ;
#31 = PLANE ( 'NONE',  #180 ) ;
#32 = MANIFOLD_SOLID_BREP ( 'Corps-Déplacer/Copier1[1]', #196 ) ;
#33 = CC_DESIGN_PERSON_AND_ORGANIZATION_ASSIGNMENT ( #26, #167, ( #170 ) ) ;
#34 = APPLICATION_PROTOCOL_DEFINITION ( 'international standard', 'config_control_design', 1994, #177 ) ;
#35 = CARTESIAN_POINT ( 'NONE',  ( 2.496409157272839907E-13, 4.999999999999992006, 71.49999999999998579 ) ) ;
#36 = CIRCLE ( 'NONE', #197, 4.999999999999997335 ) ;
#37 = EDGE_CURVE ( 'NONE', #60, #60, #207, .T. ) ;
#38 = COORDINATED_UNIVERSAL_TIME_OFFSET ( 1, 0, .AHEAD. ) ;
#39 = CC_DESIGN_APPROVAL ( #208, ( #40 ) ) ;
#40 = PRODUCT_DEFINITION ( 'UNKNOWN', '', #241, #139 ) ;
#41 = ORIENTED_EDGE ( 'NONE', *, *, #30, .T. ) ;
#42 = COORDINATED_UNIVERSAL_TIME_OFFSET ( 1, 0, .AHEAD. ) ;
#43 = CARTESIAN_POINT ( 'NONE',  ( 2.513866563967056016E-13, -8.817456953860941711E-15, 72.00000000000000000 ) ) ;
#44 = CALENDAR_DATE ( 2021, 1, 11 ) ;
#45 = FACE_OUTER_BOUND ( 'NONE', #23, .T. ) ;
#46 = APPROVAL_PERSON_ORGANIZATION ( #182, #112, #5 ) ;
#47 = DIRECTION ( 'NONE',  ( 3.491481338843133355E-15, -1.224646799147353207E-16, 1.000000000000000000 ) ) ;
#48 = FACE_OUTER_BOUND ( 'NONE', #81, .T. ) ;
#49 = CALENDAR_DATE ( 2021, 1, 11 ) ;
#50 = DIRECTION ( 'NONE',  ( 3.491481338843133355E-15, -1.227517819005651059E-16, 1.000000000000000000 ) ) ;
#51 = DATE_AND_TIME ( #49, #1 ) ;
#52 = EDGE_CURVE ( 'NONE', #19, #19, #75, .T. ) ;
#53 = DIRECTION ( 'NONE',  ( -4.275831445896958607E-31, -1.000000000000000000, -1.224646799147353207E-16 ) ) ;
#54 = CARTESIAN_POINT ( 'NONE',  ( 6.982962677686247975E-16, -2.453312193277549474E-17, 0.1999999999999994560 ) ) ;
#55 = DIRECTION ( 'NONE',  ( 3.491481338843133355E-15, -1.226656096638776648E-16, 1.000000000000000000 ) ) ;
#56 = AXIS2_PLACEMENT_3D ( 'NONE', #144, #124, #205 ) ;
#57 = VERTEX_POINT ( 'NONE', #115 ) ;
#58 = AXIS2_PLACEMENT_3D ( 'NONE', #106, #47, #102 ) ;
#59 = PERSON_AND_ORGANIZATION_ROLE ( 'design_owner' ) ;
#60 = VERTEX_POINT ( 'NONE', #211 ) ;
#61 = APPROVAL_STATUS ( 'not_yet_approved' ) ;
#62 = CC_DESIGN_PERSON_AND_ORGANIZATION_ASSIGNMENT ( #226, #59, ( #238 ) ) ;
#63 = CIRCLE ( 'NONE', #56, 4.749999999999998224 ) ;
#64 = DIRECTION ( 'NONE',  ( -4.282846870592449122E-31, -1.000000000000000000, -1.226656096638776894E-16 ) ) ;
#65 = APPROVAL_PERSON_ORGANIZATION ( #161, #74, #111 ) ;
#66 = FACE_OUTER_BOUND ( 'NONE', #103, .T. ) ;
#67 = COORDINATED_UNIVERSAL_TIME_OFFSET ( 1, 0, .AHEAD. ) ;
#68 = DIRECTION ( 'NONE',  ( -3.491481338843133355E-15, 1.224646799147353207E-16, -1.000000000000000000 ) ) ;
#69 = SECURITY_CLASSIFICATION_LEVEL ( 'unclassified' ) ;
#70 = ADVANCED_FACE ( 'NONE', ( #120, #201 ), #126, .T. ) ;
#71 = DIRECTION ( 'NONE',  ( -4.275831445896958607E-31, -1.000000000000000000, -1.224646799147353207E-16 ) ) ;
#72 = PERSON_AND_ORGANIZATION ( #96, #73 ) ;
#73 = ORGANIZATION ( 'UNSPECIFIED', 'UNSPECIFIED', '' ) ;
#74 = APPROVAL ( #149, 'UNSPECIFIED' ) ;
#75 = CIRCLE ( 'NONE', #155, 5.000000000000000888 ) ;
#76 = MECHANICAL_CONTEXT ( 'NONE', #177, 'mechanical' ) ;
#77 = CC_DESIGN_SECURITY_CLASSIFICATION ( #170, ( #241 ) ) ;
#78 = DIRECTION ( 'NONE',  ( 1.000000000000000000, 0.0000000000000000000, 0.0000000000000000000 ) ) ;
#79 = LOCAL_TIME ( 13, 23, 38.00000000000000000, #42 ) ;
#80 = ORIENTED_EDGE ( 'NONE', *, *, #128, .T. ) ;
#81 = EDGE_LOOP ( 'NONE', ( #242 ) ) ;
#82 = PERSON_AND_ORGANIZATION_ROLE ( 'creator' ) ;
#83 = ADVANCED_FACE ( 'NONE', ( #48, #215 ), #169, .T. ) ;
#84 = DIRECTION ( 'NONE',  ( -3.491481338843133355E-15, 1.224646799147353207E-16, -1.000000000000000000 ) ) ;
#85 = EDGE_LOOP ( 'NONE', ( #2 ) ) ;
#86 = SHAPE_DEFINITION_REPRESENTATION ( #190, #159 ) ;
#87 = CARTESIAN_POINT ( 'NONE',  ( -1.948695326119564521E-30, 4.186431156629214856E-32, -5.581285239706436348E-16 ) ) ;
#88 = PERSON_AND_ORGANIZATION_ROLE ( 'design_supplier' ) ;
#89 = FACE_OUTER_BOUND ( 'NONE', #20, .T. ) ;
#90 = CARTESIAN_POINT ( 'NONE',  ( 2.496409157272839907E-13, -8.756224613903572559E-15, 71.49999999999998579 ) ) ;
#91 = CIRCLE ( 'NONE', #195, 4.750000000000000000 ) ;
#92 = DIRECTION ( 'NONE',  ( -4.257318824434942550E-31, -1.000000000000000000, -1.198328716957662834E-16 ) ) ;
#93 = PRODUCT_RELATED_PRODUCT_CATEGORY ( 'detail', '', ( #238 ) ) ;
#94 = DIRECTION ( 'NONE',  ( 3.491481338843133355E-15, -1.226656096638776648E-16, 1.000000000000000000 ) ) ;
#95 = AXIS2_PLACEMENT_3D ( 'NONE', #43, #68, #146 ) ;
#96 = PERSON ( 'UNSPECIFIED', 'UNSPECIFIED', 'UNSPECIFIED', ('UNSPECIFIED'), ('UNSPECIFIED'), ('UNSPECIFIED') ) ;
#97 = VERTEX_POINT ( 'NONE', #12 ) ;
#98 = CONICAL_SURFACE ( 'NONE', #193, 4.750000000000000000, 0.7853981633974430610 ) ;
#99 = EDGE_LOOP ( 'NONE', ( #80 ) ) ;
#100 =( LENGTH_UNIT ( ) NAMED_UNIT ( * ) SI_UNIT ( .MILLI., .METRE. ) );
#101 = EDGE_LOOP ( 'NONE', ( #22 ) ) ;
#102 = DIRECTION ( 'NONE',  ( -4.275831445896958607E-31, -1.000000000000000000, -1.224646799147353207E-16 ) ) ;
#103 = EDGE_LOOP ( 'NONE', ( #154 ) ) ;
#104 = DATE_TIME_ROLE ( 'creation_date' ) ;
#105 = CC_DESIGN_APPROVAL ( #74, ( #170 ) ) ;
#106 = CARTESIAN_POINT ( 'NONE',  ( 6.633814543801952113E-14, 3.749399456654636904E-32, 19.00000000000000000 ) ) ;
#107 = EDGE_LOOP ( 'NONE', ( #216 ) ) ;
#108 = DATE_TIME_ROLE ( 'classification_date' ) ;
#109 = CYLINDRICAL_SURFACE ( 'NONE', #152, 4.999999999999997335 ) ;
#110 = COORDINATED_UNIVERSAL_TIME_OFFSET ( 1, 0, .AHEAD. ) ;
#111 = APPROVAL_ROLE ( '' ) ;
#112 = APPROVAL ( #145, 'UNSPECIFIED' ) ;
#113 = CARTESIAN_POINT ( 'NONE',  ( 6.633814543801952113E-14, 3.749399456654636904E-32, 19.00000000000000000 ) ) ;
#114 = ADVANCED_FACE ( 'NONE', ( #45, #148 ), #21, .F. ) ;
#115 = CARTESIAN_POINT ( 'NONE',  ( 6.633814543801952113E-14, -4.750000000000000888, 19.00000000000000000 ) ) ;
#116 = ADVANCED_FACE ( 'NONE', ( #25 ), #151, .F. ) ;
#117 = CC_DESIGN_DATE_AND_TIME_ASSIGNMENT ( #122, #108, ( #170 ) ) ;
#118 = FACE_OUTER_BOUND ( 'NONE', #107, .T. ) ;
#119 = LOCAL_TIME ( 13, 23, 38.00000000000000000, #127 ) ;
#120 = FACE_OUTER_BOUND ( 'NONE', #156, .T. ) ;
#121 = EDGE_LOOP ( 'NONE', ( #231 ) ) ;
#122 = DATE_AND_TIME ( #191, #79 ) ;
#123 = AXIS2_PLACEMENT_3D ( 'NONE', #176, #214, #8 ) ;
#124 = DIRECTION ( 'NONE',  ( 3.491481338843133355E-15, -1.227517819005651059E-16, 1.000000000000000000 ) ) ;
#125 = DIRECTION ( 'NONE',  ( -3.491481338843133355E-15, 1.227517819005651059E-16, -1.000000000000000000 ) ) ;
#126 = CYLINDRICAL_SURFACE ( 'NONE', #136, 4.749999999999997335 ) ;
#127 = COORDINATED_UNIVERSAL_TIME_OFFSET ( 1, 0, .AHEAD. ) ;
#128 = EDGE_CURVE ( 'NONE', #13, #13, #9, .T. ) ;
#129 = DIRECTION ( 'NONE',  ( 3.491481338843133355E-15, -1.226656096638776648E-16, 1.000000000000000000 ) ) ;
#130 = AXIS2_PLACEMENT_3D ( 'NONE', #179, #84, #184 ) ;
#131 = EDGE_CURVE ( 'NONE', #194, #194, #213, .T. ) ;
#132 = FACE_OUTER_BOUND ( 'NONE', #228, .T. ) ;
#133 =( NAMED_UNIT ( * ) SI_UNIT ( $, .STERADIAN. ) SOLID_ANGLE_UNIT ( ) );
#134 =( GEOMETRIC_REPRESENTATION_CONTEXT ( 3 ) GLOBAL_UNCERTAINTY_ASSIGNED_CONTEXT ( ( #175 ) ) GLOBAL_UNIT_ASSIGNED_CONTEXT ( ( #100, #237, #133 ) ) REPRESENTATION_CONTEXT ( 'NONE', 'WORKASPACE' ) );
#135 = CC_DESIGN_PERSON_AND_ORGANIZATION_ASSIGNMENT ( #72, #88, ( #241 ) ) ;
#136 = AXIS2_PLACEMENT_3D ( 'NONE', #200, #229, #141 ) ;
#137 = CARTESIAN_POINT ( 'NONE',  ( 2.513866563967056016E-13, 4.499999999999992006, 72.00000000000000000 ) ) ;
#138 = EDGE_CURVE ( 'NONE', #225, #225, #36, .T. ) ;
#139 = DESIGN_CONTEXT ( 'detailed design', #240, 'design' ) ;
#140 = ADVANCED_FACE ( 'NONE', ( #118 ), #11, .F. ) ;
#141 = DIRECTION ( 'NONE',  ( -4.285855558155653280E-31, -1.000000000000000000, -1.227517819005651059E-16 ) ) ;
#142 = DIRECTION ( 'NONE',  ( 4.275831445896959482E-31, 1.000000000000000000, 1.224646799147353207E-16 ) ) ;
#143 = CC_DESIGN_PERSON_AND_ORGANIZATION_ASSIGNMENT ( #230, #82, ( #40 ) ) ;
#144 = CARTESIAN_POINT ( 'NONE',  ( 6.633814543801952113E-14, -2.332283856110737258E-15, 19.00000000000000000 ) ) ;
#145 = APPROVAL_STATUS ( 'not_yet_approved' ) ;
#146 = DIRECTION ( 'NONE',  ( 0.0000000000000000000, 1.000000000000000000, 0.0000000000000000000 ) ) ;
#147 = CARTESIAN_POINT ( 'NONE',  ( 7.326633893537088163E-14, -1.978301491901009185E-15, 20.98431348329845036 ) ) ;
#148 = FACE_OUTER_BOUND ( 'NONE', #181, .T. ) ;
#149 = APPROVAL_STATUS ( 'not_yet_approved' ) ;
#150 = ORIENTED_EDGE ( 'NONE', *, *, #131, .T. ) ;
#151 = PLANE ( 'NONE',  #58 ) ;
#152 = AXIS2_PLACEMENT_3D ( 'NONE', #6, #27, #142 ) ;
#153 = AXIS2_PLACEMENT_3D ( 'NONE', #239, #172, #78 ) ;
#154 = ORIENTED_EDGE ( 'NONE', *, *, #128, .F. ) ;
#155 = AXIS2_PLACEMENT_3D ( 'NONE', #90, #166, #233 ) ;
#156 = EDGE_LOOP ( 'NONE', ( #243 ) ) ;
#157 = CARTESIAN_POINT ( 'NONE',  ( 6.633814543801952113E-14, -2.332283856110737258E-15, 19.00000000000000000 ) ) ;
#158 = ORIENTED_EDGE ( 'NONE', *, *, #30, .F. ) ;
#159 = ADVANCED_BREP_SHAPE_REPRESENTATION ( '57222', ( #32, #29, #153 ), #134 ) ;
#160 = EDGE_LOOP ( 'NONE', ( #227 ) ) ;
#161 = PERSON_AND_ORGANIZATION ( #96, #73 ) ;
#162 = CC_DESIGN_DATE_AND_TIME_ASSIGNMENT ( #217, #104, ( #40 ) ) ;
#163 = FACE_BOUND ( 'NONE', #160, .T. ) ;
#164 = CLOSED_SHELL ( 'NONE', ( #70, #199, #210, #140 ) ) ;
#165 = DIRECTION ( 'NONE',  ( 0.0000000000000000000, 1.000000000000000000, 0.0000000000000000000 ) ) ;
#166 = DIRECTION ( 'NONE',  ( -3.491481338843133355E-15, 1.224646799147353207E-16, -1.000000000000000000 ) ) ;
#167 = PERSON_AND_ORGANIZATION_ROLE ( 'classification_officer' ) ;
#168 = AXIS2_PLACEMENT_3D ( 'NONE', #157, #7, #3 ) ;
#169 = CONICAL_SURFACE ( 'NONE', #95, 4.500000000000000888, 0.7853981633974344012 ) ;
#170 = SECURITY_CLASSIFICATION ( '', '', #69 ) ;
#171 = CARTESIAN_POINT ( 'NONE',  ( 6.982962677686247975E-16, -2.453312193277549474E-17, 0.1999999999999994560 ) ) ;
#172 = DIRECTION ( 'NONE',  ( 0.0000000000000000000, 0.0000000000000000000, 1.000000000000000000 ) ) ;
#173 = APPROVAL_PERSON_ORGANIZATION ( #209, #208, #212 ) ;
#174 = APPLICATION_PROTOCOL_DEFINITION ( 'international standard', 'config_control_design', 1994, #240 ) ;
#175 = UNCERTAINTY_MEASURE_WITH_UNIT (LENGTH_MEASURE( 1.000000000000000082E-05 ), #100, 'distance_accuracy_value', 'NONE');
#176 = CARTESIAN_POINT ( 'NONE',  ( 2.513866563967056016E-13, 3.374459510989167028E-32, 72.00000000000000000 ) ) ;
#177 = APPLICATION_CONTEXT ( 'configuration controlled 3d designs of mechanical parts and assemblies' ) ;
#178 = ORIENTED_EDGE ( 'NONE', *, *, #138, .T. ) ;
#179 = CARTESIAN_POINT ( 'NONE',  ( 2.513866563967056016E-13, -8.817456953860941711E-15, 72.00000000000000000 ) ) ;
#180 = AXIS2_PLACEMENT_3D ( 'NONE', #113, #10, #71 ) ;
#181 = EDGE_LOOP ( 'NONE', ( #178 ) ) ;
#182 = PERSON_AND_ORGANIZATION ( #96, #73 ) ;
#183 = CARTESIAN_POINT ( 'NONE',  ( -8.551702076470480934E-31, 2.999533309458101739E-32, -2.449304821232125005E-16 ) ) ;
#184 = DIRECTION ( 'NONE',  ( 0.0000000000000000000, 1.000000000000000000, 0.0000000000000000000 ) ) ;
#185 = EDGE_LOOP ( 'NONE', ( #158 ) ) ;
#186 = APPROVAL_DATE_TIME ( #218, #208 ) ;
#187 = ORIENTED_EDGE ( 'NONE', *, *, #52, .T. ) ;
#188 = APPROVAL_DATE_TIME ( #51, #74 ) ;
#189 = DIRECTION ( 'NONE',  ( -4.257318824434942550E-31, -1.000000000000000000, -1.198328716957662834E-16 ) ) ;
#190 = PRODUCT_DEFINITION_SHAPE ( 'NONE', 'NONE',  #40 ) ;
#191 = CALENDAR_DATE ( 2021, 1, 11 ) ;
#192 = CC_DESIGN_APPROVAL ( #112, ( #241 ) ) ;
#193 = AXIS2_PLACEMENT_3D ( 'NONE', #171, #55, #92 ) ;
#194 = VERTEX_POINT ( 'NONE', #236 ) ;
#195 = AXIS2_PLACEMENT_3D ( 'NONE', #54, #94, #189 ) ;
#196 = CLOSED_SHELL ( 'NONE', ( #235, #83, #17, #114, #116 ) ) ;
#197 = AXIS2_PLACEMENT_3D ( 'NONE', #147, #125, #165 ) ;
#198 = PERSON_AND_ORGANIZATION_ROLE ( 'creator' ) ;
#199 = ADVANCED_FACE ( 'NONE', ( #89 ), #31, .T. ) ;
#200 = CARTESIAN_POINT ( 'NONE',  ( -6.413731847436034514E-31, 0.0000000000000000000, -1.836965810494968570E-16 ) ) ;
#201 = FACE_OUTER_BOUND ( 'NONE', #85, .T. ) ;
#202 = PERSON_AND_ORGANIZATION ( #96, #73 ) ;
#203 = FACE_OUTER_BOUND ( 'NONE', #121, .T. ) ;
#204 = EDGE_CURVE ( 'NONE', #97, #97, #91, .T. ) ;
#205 = DIRECTION ( 'NONE',  ( 0.0000000000000000000, -1.000000000000000000, 0.0000000000000000000 ) ) ;
#206 = CALENDAR_DATE ( 2021, 1, 11 ) ;
#207 = CIRCLE ( 'NONE', #14, 4.550000000000001599 ) ;
#208 = APPROVAL ( #61, 'UNSPECIFIED' ) ;
#209 = PERSON_AND_ORGANIZATION ( #96, #73 ) ;
#210 = ADVANCED_FACE ( 'NONE', ( #163, #224 ), #98, .T. ) ;
#211 = CARTESIAN_POINT ( 'NONE',  ( -3.897390652239129744E-30, -4.550000000000001599, -1.116257047941287270E-15 ) ) ;
#212 = APPROVAL_ROLE ( '' ) ;
#213 = CIRCLE ( 'NONE', #168, 4.749999999999998224 ) ;
#214 = DIRECTION ( 'NONE',  ( -3.491481338843133355E-15, 1.224646799147353207E-16, -1.000000000000000000 ) ) ;
#215 = FACE_BOUND ( 'NONE', #99, .T. ) ;
#216 = ORIENTED_EDGE ( 'NONE', *, *, #37, .F. ) ;
#217 = DATE_AND_TIME ( #28, #18 ) ;
#218 = DATE_AND_TIME ( #206, #15 ) ;
#219 = CARTESIAN_POINT ( 'NONE',  ( 6.633814543801952113E-14, -1.734723475976807094E-15, 19.00000000000000000 ) ) ;
#220 = DATE_AND_TIME ( #44, #119 ) ;
#221 = DIRECTION ( 'NONE',  ( 3.491481338843133355E-15, -1.224646799147353207E-16, 1.000000000000000000 ) ) ;
#222 = AXIS2_PLACEMENT_3D ( 'NONE', #219, #50, #223 ) ;
#223 = DIRECTION ( 'NONE',  ( -4.388237416095931361E-31, -1.000000000000000000, -1.227517819005651059E-16 ) ) ;
#224 = FACE_OUTER_BOUND ( 'NONE', #101, .T. ) ;
#225 = VERTEX_POINT ( 'NONE', #16 ) ;
#226 = PERSON_AND_ORGANIZATION ( #96, #73 ) ;
#227 = ORIENTED_EDGE ( 'NONE', *, *, #37, .T. ) ;
#228 = EDGE_LOOP ( 'NONE', ( #187 ) ) ;
#229 = DIRECTION ( 'NONE',  ( 3.491481338843133355E-15, -1.227517819005651059E-16, 1.000000000000000000 ) ) ;
#230 = PERSON_AND_ORGANIZATION ( #96, #73 ) ;
#231 = ORIENTED_EDGE ( 'NONE', *, *, #138, .F. ) ;
#232 = AXIS2_PLACEMENT_3D ( 'NONE', #183, #221, #53 ) ;
#233 = DIRECTION ( 'NONE',  ( 0.0000000000000000000, 1.000000000000000000, 0.0000000000000000000 ) ) ;
#234 = APPROVAL_DATE_TIME ( #220, #112 ) ;
#235 = ADVANCED_FACE ( 'NONE', ( #132, #203 ), #109, .T. ) ;
#236 = CARTESIAN_POINT ( 'NONE',  ( 6.633814543801952113E-14, -4.750000000000000888, 19.00000000000000000 ) ) ;
#237 =( NAMED_UNIT ( * ) PLANE_ANGLE_UNIT ( ) SI_UNIT ( $, .RADIAN. ) );
#238 = PRODUCT ( '57222', '57222', '', ( #76 ) ) ;
#239 = CARTESIAN_POINT ( 'NONE',  ( 0.0000000000000000000, 0.0000000000000000000, 0.0000000000000000000 ) ) ;
#240 = APPLICATION_CONTEXT ( 'configuration controlled 3d designs of mechanical parts and assemblies' ) ;
#241 = PRODUCT_DEFINITION_FORMATION_WITH_SPECIFIED_SOURCE ( 'ANY', '', #238, .NOT_KNOWN. ) ;
#242 = ORIENTED_EDGE ( 'NONE', *, *, #52, .F. ) ;
#243 = ORIENTED_EDGE ( 'NONE', *, *, #131, .F. ) ;
ENDSEC;
END-ISO-10303-21;
