ISO-10303-21;
HEADER;
FILE_DESCRIPTION (( 'STEP AP203' ),
    '1' );
FILE_NAME ('57221.step',
    '2021-11-01T12:23:38',
    ( '' ),
    ( '' ),
    'SwSTEP 2.0',
    'SolidWorks 2019',
    '' );
FILE_SCHEMA (( 'CONFIG_CONTROL_DESIGN' ));
ENDSEC;

DATA;
#1 = DIRECTION ( 'NONE',  ( 0.0000000000000000000, 1.000000000000000000, 0.0000000000000000000 ) ) ;
#2 = DATE_TIME_ROLE ( 'classification_date' ) ;
#3 = EDGE_LOOP ( 'NONE', ( #85 ) ) ;
#4 = PRODUCT ( '57221', '57221', '', ( #92 ) ) ;
#5 = CC_DESIGN_APPROVAL ( #208, ( #74 ) ) ;
#6 = ADVANCED_BREP_SHAPE_REPRESENTATION ( '57221', ( #19, #95, #27 ), #132 ) ;
#7 = AXIS2_PLACEMENT_3D ( 'NONE', #39, #229, #25 ) ;
#8 = CARTESIAN_POINT ( 'NONE',  ( -3.683248308709506368E-30, -4.300000000000001599, -1.054924243109348326E-15 ) ) ;
#9 = CARTESIAN_POINT ( 'NONE',  ( 6.982962677686230226E-16, -4.500000000000000000, 0.1999999999999989564 ) ) ;
#10 = APPLICATION_CONTEXT ( 'configuration controlled 3d designs of mechanical parts and assemblies' ) ;
#11 = ADVANCED_FACE ( 'NONE', ( #127, #114 ), #29, .T. ) ;
#12 = VERTEX_POINT ( 'NONE', #8 ) ;
#13 = ORIENTED_EDGE ( 'NONE', *, *, #182, .F. ) ;
#14 = FACE_OUTER_BOUND ( 'NONE', #31, .T. ) ;
#15 = CIRCLE ( 'NONE', #143, 5.000000000000000888 ) ;
#16 = EDGE_LOOP ( 'NONE', ( #107 ) ) ;
#17 = DIRECTION ( 'NONE',  ( -3.491481338843133355E-15, 1.224646799147353207E-16, -1.000000000000000000 ) ) ;
#18 = PERSON_AND_ORGANIZATION ( #236, #83 ) ;
#19 = MANIFOLD_SOLID_BREP ( 'Corps-Déplacer/Copier1[1]', #180 ) ;
#20 = CC_DESIGN_PERSON_AND_ORGANIZATION_ASSIGNMENT ( #203, #113, ( #77 ) ) ;
#21 = CALENDAR_DATE ( 2021, 1, 11 ) ;
#22 = PERSON_AND_ORGANIZATION ( #236, #83 ) ;
#23 = PLANE ( 'NONE',  #155 ) ;
#24 = APPROVAL_STATUS ( 'not_yet_approved' ) ;
#25 = DIRECTION ( 'NONE',  ( -4.285855558155653280E-31, -1.000000000000000000, -1.227517819005651059E-16 ) ) ;
#26 = CC_DESIGN_SECURITY_CLASSIFICATION ( #61, ( #77 ) ) ;
#27 = AXIS2_PLACEMENT_3D ( 'NONE', #186, #71, #154 ) ;
#28 = CARTESIAN_POINT ( 'NONE',  ( 2.513866563967056016E-13, 4.499999999999992006, 72.00000000000000000 ) ) ;
#29 = CONICAL_SURFACE ( 'NONE', #213, 4.500000000000000000, 0.7853981633974430610 ) ;
#30 = ORIENTED_EDGE ( 'NONE', *, *, #93, .T. ) ;
#31 = EDGE_LOOP ( 'NONE', ( #104 ) ) ;
#32 = EDGE_LOOP ( 'NONE', ( #214 ) ) ;
#33 = CC_DESIGN_PERSON_AND_ORGANIZATION_ASSIGNMENT ( #171, #116, ( #74 ) ) ;
#34 = FACE_OUTER_BOUND ( 'NONE', #153, .T. ) ;
#35 = DIRECTION ( 'NONE',  ( 0.0000000000000000000, -1.000000000000000000, 0.0000000000000000000 ) ) ;
#36 = LOCAL_TIME ( 13, 23, 37.00000000000000000, #242 ) ;
#37 = DIRECTION ( 'NONE',  ( -4.275831445896958607E-31, -1.000000000000000000, -1.224646799147353207E-16 ) ) ;
#38 = PERSON_AND_ORGANIZATION ( #236, #83 ) ;
#39 = CARTESIAN_POINT ( 'NONE',  ( -6.413731847436034514E-31, 0.0000000000000000000, -1.836965810494968570E-16 ) ) ;
#40 = PERSON_AND_ORGANIZATION_ROLE ( 'classification_officer' ) ;
#41 = FACE_OUTER_BOUND ( 'NONE', #106, .T. ) ;
#42 = DIRECTION ( 'NONE',  ( -3.491481338843133355E-15, 1.224646799147353207E-16, -1.000000000000000000 ) ) ;
#43 = VERTEX_POINT ( 'NONE', #211 ) ;
#44 = VERTEX_POINT ( 'NONE', #100 ) ;
#45 = EDGE_CURVE ( 'NONE', #210, #210, #185, .T. ) ;
#46 = AXIS2_PLACEMENT_3D ( 'NONE', #78, #157, #98 ) ;
#47 = ORIENTED_EDGE ( 'NONE', *, *, #93, .F. ) ;
#48 = ADVANCED_FACE ( 'NONE', ( #187 ), #88, .F. ) ;
#49 = CIRCLE ( 'NONE', #96, 4.999999999999997335 ) ;
#50 = DIRECTION ( 'NONE',  ( 3.491481338843133355E-15, -1.224646799147353207E-16, 1.000000000000000000 ) ) ;
#51 = CARTESIAN_POINT ( 'NONE',  ( 6.982962677686248961E-16, -2.453312193277549783E-17, 0.1999999999999994837 ) ) ;
#52 = DATE_AND_TIME ( #219, #234 ) ;
#53 = DIRECTION ( 'NONE',  ( 0.0000000000000000000, 1.000000000000000000, 0.0000000000000000000 ) ) ;
#54 = FACE_OUTER_BOUND ( 'NONE', #65, .T. ) ;
#55 = DATE_AND_TIME ( #21, #79 ) ;
#56 = DIRECTION ( 'NONE',  ( -4.275831445896958607E-31, -1.000000000000000000, -1.224646799147353207E-16 ) ) ;
#57 = DATE_AND_TIME ( #166, #181 ) ;
#58 = APPLICATION_PROTOCOL_DEFINITION ( 'international standard', 'config_control_design', 1994, #10 ) ;
#59 = CARTESIAN_POINT ( 'NONE',  ( 5.586370142149013368E-14, -4.499999999999999112, 16.00000000000000000 ) ) ;
#60 = FACE_OUTER_BOUND ( 'NONE', #126, .T. ) ;
#61 = SECURITY_CLASSIFICATION ( '', '', #173 ) ;
#62 = AXIS2_PLACEMENT_3D ( 'NONE', #215, #162, #76 ) ;
#63 = ADVANCED_FACE ( 'NONE', ( #167, #34 ), #217, .F. ) ;
#64 = AXIS2_PLACEMENT_3D ( 'NONE', #117, #130, #188 ) ;
#65 = EDGE_LOOP ( 'NONE', ( #141 ) ) ;
#66 = APPROVAL_ROLE ( '' ) ;
#67 = UNCERTAINTY_MEASURE_WITH_UNIT (LENGTH_MEASURE( 1.000000000000000082E-05 ), #103, 'distance_accuracy_value', 'NONE');
#68 = CARTESIAN_POINT ( 'NONE',  ( 5.586370142149013368E-14, -1.964028510409041694E-15, 16.00000000000000000 ) ) ;
#69 = DATE_AND_TIME ( #89, #36 ) ;
#70 = CARTESIAN_POINT ( 'NONE',  ( 2.513866563967056016E-13, 3.374459510989167028E-32, 72.00000000000000000 ) ) ;
#71 = DIRECTION ( 'NONE',  ( 0.0000000000000000000, 0.0000000000000000000, 1.000000000000000000 ) ) ;
#72 = DIRECTION ( 'NONE',  ( -3.491481338843133355E-15, 1.224646799147353207E-16, -1.000000000000000000 ) ) ;
#73 = PERSON_AND_ORGANIZATION_ROLE ( 'design_supplier' ) ;
#74 = PRODUCT_DEFINITION ( 'UNKNOWN', '', #77, #129 ) ;
#75 = APPROVAL_ROLE ( '' ) ;
#76 = DIRECTION ( 'NONE',  ( -4.282846870592447371E-31, -1.000000000000000000, -1.226656096638776648E-16 ) ) ;
#77 = PRODUCT_DEFINITION_FORMATION_WITH_SPECIFIED_SOURCE ( 'ANY', '', #4, .NOT_KNOWN. ) ;
#78 = CARTESIAN_POINT ( 'NONE',  ( 2.513866563967056016E-13, -8.817456953860941711E-15, 72.00000000000000000 ) ) ;
#79 = LOCAL_TIME ( 13, 23, 37.00000000000000000, #221 ) ;
#80 = FACE_BOUND ( 'NONE', #3, .T. ) ;
#81 = ORIENTED_EDGE ( 'NONE', *, *, #163, .T. ) ;
#82 = CC_DESIGN_PERSON_AND_ORGANIZATION_ASSIGNMENT ( #18, #192, ( #4 ) ) ;
#83 = ORGANIZATION ( 'UNSPECIFIED', 'UNSPECIFIED', '' ) ;
#84 = ORIENTED_EDGE ( 'NONE', *, *, #159, .F. ) ;
#85 = ORIENTED_EDGE ( 'NONE', *, *, #159, .T. ) ;
#86 = CARTESIAN_POINT ( 'NONE',  ( -8.551702076470480934E-31, 2.999533309458101739E-32, -2.449304821232125005E-16 ) ) ;
#87 = COORDINATED_UNIVERSAL_TIME_OFFSET ( 1, 0, .AHEAD. ) ;
#88 = PLANE ( 'NONE',  #97 ) ;
#89 = CALENDAR_DATE ( 2021, 1, 11 ) ;
#90 = DIRECTION ( 'NONE',  ( 3.491481338843133355E-15, -1.224646799147353207E-16, 1.000000000000000000 ) ) ;
#91 = DIRECTION ( 'NONE',  ( 3.491481338843133355E-15, -1.226656096638776648E-16, 1.000000000000000000 ) ) ;
#92 = MECHANICAL_CONTEXT ( 'NONE', #235, 'mechanical' ) ;
#93 = EDGE_CURVE ( 'NONE', #138, #138, #49, .T. ) ;
#94 = FACE_OUTER_BOUND ( 'NONE', #32, .T. ) ;
#95 = MANIFOLD_SOLID_BREP ( 'Corps-Déplacer/Copier1[2]', #174 ) ;
#96 = AXIS2_PLACEMENT_3D ( 'NONE', #170, #189, #1 ) ;
#97 = AXIS2_PLACEMENT_3D ( 'NONE', #86, #50, #37 ) ;
#98 = DIRECTION ( 'NONE',  ( 0.0000000000000000000, 1.000000000000000000, 0.0000000000000000000 ) ) ;
#99 = CARTESIAN_POINT ( 'NONE',  ( 0.0000000000000000000, 0.0000000000000000000, 0.0000000000000000000 ) ) ;
#100 = CARTESIAN_POINT ( 'NONE',  ( 5.586370142149013368E-14, -4.499999999999999112, 16.00000000000000000 ) ) ;
#101 = EDGE_LOOP ( 'NONE', ( #146 ) ) ;
#102 = AXIS2_PLACEMENT_3D ( 'NONE', #226, #184, #145 ) ;
#103 =( LENGTH_UNIT ( ) NAMED_UNIT ( * ) SI_UNIT ( .MILLI., .METRE. ) );
#104 = ORIENTED_EDGE ( 'NONE', *, *, #216, .T. ) ;
#105 = EDGE_CURVE ( 'NONE', #44, #44, #124, .T. ) ;
#106 = EDGE_LOOP ( 'NONE', ( #84 ) ) ;
#107 = ORIENTED_EDGE ( 'NONE', *, *, #105, .T. ) ;
#108 = DIRECTION ( 'NONE',  ( -4.279844320860524021E-31, -1.000000000000000000, -1.204669080539449344E-16 ) ) ;
#109 = AXIS2_PLACEMENT_3D ( 'NONE', #128, #199, #35 ) ;
#110 = PERSON_AND_ORGANIZATION ( #236, #83 ) ;
#111 = AXIS2_PLACEMENT_3D ( 'NONE', #148, #72, #53 ) ;
#112 = FACE_OUTER_BOUND ( 'NONE', #101, .T. ) ;
#113 = PERSON_AND_ORGANIZATION_ROLE ( 'creator' ) ;
#114 = FACE_OUTER_BOUND ( 'NONE', #202, .T. ) ;
#115 = APPROVAL ( #24, 'UNSPECIFIED' ) ;
#116 = PERSON_AND_ORGANIZATION_ROLE ( 'creator' ) ;
#117 = CARTESIAN_POINT ( 'NONE',  ( 6.982962677686248961E-16, -2.453312193277549783E-17, 0.1999999999999994837 ) ) ;
#118 = PRODUCT_DEFINITION_SHAPE ( 'NONE', 'NONE',  #74 ) ;
#119 = APPROVAL ( #135, 'UNSPECIFIED' ) ;
#120 =( NAMED_UNIT ( * ) PLANE_ANGLE_UNIT ( ) SI_UNIT ( $, .RADIAN. ) );
#121 = LOCAL_TIME ( 13, 23, 37.00000000000000000, #87 ) ;
#122 = ADVANCED_FACE ( 'NONE', ( #41 ), #204, .F. ) ;
#123 = EDGE_LOOP ( 'NONE', ( #13 ) ) ;
#124 = CIRCLE ( 'NONE', #165, 4.499999999999997335 ) ;
#125 = EDGE_LOOP ( 'NONE', ( #81 ) ) ;
#126 = EDGE_LOOP ( 'NONE', ( #218 ) ) ;
#127 = FACE_BOUND ( 'NONE', #164, .T. ) ;
#128 = CARTESIAN_POINT ( 'NONE',  ( 5.586370142149013368E-14, -1.964028510409041694E-15, 16.00000000000000000 ) ) ;
#129 = DESIGN_CONTEXT ( 'detailed design', #10, 'design' ) ;
#130 = DIRECTION ( 'NONE',  ( 3.491481338843133355E-15, -1.226656096638776648E-16, 1.000000000000000000 ) ) ;
#131 = CC_DESIGN_APPROVAL ( #119, ( #61 ) ) ;
#132 =( GEOMETRIC_REPRESENTATION_CONTEXT ( 3 ) GLOBAL_UNCERTAINTY_ASSIGNED_CONTEXT ( ( #67 ) ) GLOBAL_UNIT_ASSIGNED_CONTEXT ( ( #103, #120, #194 ) ) REPRESENTATION_CONTEXT ( 'NONE', 'WORKASPACE' ) );
#133 = ADVANCED_FACE ( 'NONE', ( #112 ), #239, .T. ) ;
#134 = CYLINDRICAL_SURFACE ( 'NONE', #7, 4.499999999999997335 ) ;
#135 = APPROVAL_STATUS ( 'not_yet_approved' ) ;
#136 = DIRECTION ( 'NONE',  ( 3.491481338843133355E-15, -1.224646799147353207E-16, 1.000000000000000000 ) ) ;
#137 = SHAPE_DEFINITION_REPRESENTATION ( #118, #6 ) ;
#138 = VERTEX_POINT ( 'NONE', #160 ) ;
#139 = ADVANCED_FACE ( 'NONE', ( #54 ), #23, .F. ) ;
#140 = VERTEX_POINT ( 'NONE', #28 ) ;
#141 = ORIENTED_EDGE ( 'NONE', *, *, #105, .F. ) ;
#142 = CIRCLE ( 'NONE', #111, 4.500000000000000888 ) ;
#143 = AXIS2_PLACEMENT_3D ( 'NONE', #178, #231, #158 ) ;
#144 = ORIENTED_EDGE ( 'NONE', *, *, #182, .T. ) ;
#145 = DIRECTION ( 'NONE',  ( -4.389485975339105858E-31, -1.000000000000000000, -1.227517819005651059E-16 ) ) ;
#146 = ORIENTED_EDGE ( 'NONE', *, *, #45, .T. ) ;
#147 = COORDINATED_UNIVERSAL_TIME_OFFSET ( 1, 0, .AHEAD. ) ;
#148 = CARTESIAN_POINT ( 'NONE',  ( 2.513866563967056016E-13, -8.817456953860941711E-15, 72.00000000000000000 ) ) ;
#149 = PERSON_AND_ORGANIZATION ( #236, #83 ) ;
#150 = CC_DESIGN_PERSON_AND_ORGANIZATION_ASSIGNMENT ( #38, #40, ( #61 ) ) ;
#151 = APPROVAL_DATE_TIME ( #206, #208 ) ;
#152 = AXIS2_PLACEMENT_3D ( 'NONE', #207, #90, #56 ) ;
#153 = EDGE_LOOP ( 'NONE', ( #30 ) ) ;
#154 = DIRECTION ( 'NONE',  ( 1.000000000000000000, 0.0000000000000000000, 0.0000000000000000000 ) ) ;
#155 = AXIS2_PLACEMENT_3D ( 'NONE', #168, #136, #220 ) ;
#156 = CYLINDRICAL_SURFACE ( 'NONE', #161, 4.999999999999997335 ) ;
#157 = DIRECTION ( 'NONE',  ( -3.491481338843133355E-15, 1.224646799147353207E-16, -1.000000000000000000 ) ) ;
#158 = DIRECTION ( 'NONE',  ( 0.0000000000000000000, 1.000000000000000000, 0.0000000000000000000 ) ) ;
#159 = EDGE_CURVE ( 'NONE', #140, #140, #142, .T. ) ;
#160 = CARTESIAN_POINT ( 'NONE',  ( 6.558357410743854824E-14, 4.999999999999995559, 18.78388218141500943 ) ) ;
#161 = AXIS2_PLACEMENT_3D ( 'NONE', #99, #42, #233 ) ;
#162 = DIRECTION ( 'NONE',  ( 3.491481338843133355E-15, -1.226656096638776648E-16, 1.000000000000000000 ) ) ;
#163 = EDGE_CURVE ( 'NONE', #177, #177, #237, .T. ) ;
#164 = EDGE_LOOP ( 'NONE', ( #144 ) ) ;
#165 = AXIS2_PLACEMENT_3D ( 'NONE', #68, #222, #172 ) ;
#166 = CALENDAR_DATE ( 2021, 1, 11 ) ;
#167 = FACE_OUTER_BOUND ( 'NONE', #16, .T. ) ;
#168 = CARTESIAN_POINT ( 'NONE',  ( 5.586370142149013368E-14, 3.749399456654637451E-32, 16.00000000000000000 ) ) ;
#169 = APPROVAL_ROLE ( '' ) ;
#170 = CARTESIAN_POINT ( 'NONE',  ( 6.558357410743854824E-14, -2.076449974346732108E-15, 18.78388218141500943 ) ) ;
#171 = PERSON_AND_ORGANIZATION ( #236, #83 ) ;
#172 = DIRECTION ( 'NONE',  ( 0.0000000000000000000, -1.000000000000000000, 0.0000000000000000000 ) ) ;
#173 = SECURITY_CLASSIFICATION_LEVEL ( 'unclassified' ) ;
#174 = CLOSED_SHELL ( 'NONE', ( #176, #133, #11, #48 ) ) ;
#175 = CC_DESIGN_APPROVAL ( #115, ( #77 ) ) ;
#176 = ADVANCED_FACE ( 'NONE', ( #94, #241 ), #134, .T. ) ;
#177 = VERTEX_POINT ( 'NONE', #9 ) ;
#178 = CARTESIAN_POINT ( 'NONE',  ( 2.496409157272839907E-13, -8.756224613903572559E-15, 71.49999999999998579 ) ) ;
#179 = EDGE_LOOP ( 'NONE', ( #47 ) ) ;
#180 = CLOSED_SHELL ( 'NONE', ( #193, #198, #122, #63, #139 ) ) ;
#181 = LOCAL_TIME ( 13, 23, 37.00000000000000000, #228 ) ;
#182 = EDGE_CURVE ( 'NONE', #12, #12, #196, .T. ) ;
#183 = ORIENTED_EDGE ( 'NONE', *, *, #163, .F. ) ;
#184 = DIRECTION ( 'NONE',  ( 3.491481338843133355E-15, -1.227517819005651059E-16, 1.000000000000000000 ) ) ;
#185 = CIRCLE ( 'NONE', #109, 4.499999999999997335 ) ;
#186 = CARTESIAN_POINT ( 'NONE',  ( 0.0000000000000000000, 0.0000000000000000000, 0.0000000000000000000 ) ) ;
#187 = FACE_OUTER_BOUND ( 'NONE', #123, .T. ) ;
#188 = DIRECTION ( 'NONE',  ( -4.279844320860524021E-31, -1.000000000000000000, -1.204669080539449344E-16 ) ) ;
#189 = DIRECTION ( 'NONE',  ( -3.491481338843133355E-15, 1.227517819005651059E-16, -1.000000000000000000 ) ) ;
#190 = APPLICATION_PROTOCOL_DEFINITION ( 'international standard', 'config_control_design', 1994, #235 ) ;
#191 = DIRECTION ( 'NONE',  ( 4.275831445896958607E-31, 1.000000000000000000, 1.224646799147353207E-16 ) ) ;
#192 = PERSON_AND_ORGANIZATION_ROLE ( 'design_owner' ) ;
#193 = ADVANCED_FACE ( 'NONE', ( #14, #197 ), #156, .T. ) ;
#194 =( NAMED_UNIT ( * ) SI_UNIT ( $, .STERADIAN. ) SOLID_ANGLE_UNIT ( ) );
#195 = AXIS2_PLACEMENT_3D ( 'NONE', #70, #17, #191 ) ;
#196 = CIRCLE ( 'NONE', #62, 4.300000000000001599 ) ;
#197 = FACE_OUTER_BOUND ( 'NONE', #179, .T. ) ;
#198 = ADVANCED_FACE ( 'NONE', ( #60, #80 ), #230, .T. ) ;
#199 = DIRECTION ( 'NONE',  ( 3.491481338843133355E-15, -1.227517819005651059E-16, 1.000000000000000000 ) ) ;
#200 = APPROVAL_DATE_TIME ( #52, #119 ) ;
#201 = APPROVAL_PERSON_ORGANIZATION ( #238, #119, #66 ) ;
#202 = EDGE_LOOP ( 'NONE', ( #183 ) ) ;
#203 = PERSON_AND_ORGANIZATION ( #236, #83 ) ;
#204 = PLANE ( 'NONE',  #195 ) ;
#205 = PRODUCT_RELATED_PRODUCT_CATEGORY ( 'detail', '', ( #4 ) ) ;
#206 = DATE_AND_TIME ( #227, #121 ) ;
#207 = CARTESIAN_POINT ( 'NONE',  ( 5.586370142149013368E-14, 3.749399456654637451E-32, 16.00000000000000000 ) ) ;
#208 = APPROVAL ( #240, 'UNSPECIFIED' ) ;
#209 = APPROVAL_DATE_TIME ( #69, #115 ) ;
#210 = VERTEX_POINT ( 'NONE', #59 ) ;
#211 = CARTESIAN_POINT ( 'NONE',  ( 2.496409157272839907E-13, 4.999999999999992006, 71.49999999999998579 ) ) ;
#212 = APPROVAL_PERSON_ORGANIZATION ( #110, #115, #75 ) ;
#213 = AXIS2_PLACEMENT_3D ( 'NONE', #51, #91, #108 ) ;
#214 = ORIENTED_EDGE ( 'NONE', *, *, #45, .F. ) ;
#215 = CARTESIAN_POINT ( 'NONE',  ( -1.841624154354753184E-30, 3.810259861773944146E-32, -5.274621215546741631E-16 ) ) ;
#216 = EDGE_CURVE ( 'NONE', #43, #43, #15, .T. ) ;
#217 = TOROIDAL_SURFACE ( 'NONE', #102, 12.49999999999999645, 8.000000000000000000 ) ;
#218 = ORIENTED_EDGE ( 'NONE', *, *, #216, .F. ) ;
#219 = CALENDAR_DATE ( 2021, 1, 11 ) ;
#220 = DIRECTION ( 'NONE',  ( -4.275831445896958607E-31, -1.000000000000000000, -1.224646799147353207E-16 ) ) ;
#221 = COORDINATED_UNIVERSAL_TIME_OFFSET ( 1, 0, .AHEAD. ) ;
#222 = DIRECTION ( 'NONE',  ( 3.491481338843133355E-15, -1.227517819005651059E-16, 1.000000000000000000 ) ) ;
#223 = APPROVAL_PERSON_ORGANIZATION ( #22, #208, #169 ) ;
#224 = DATE_TIME_ROLE ( 'creation_date' ) ;
#225 = CC_DESIGN_DATE_AND_TIME_ASSIGNMENT ( #57, #224, ( #74 ) ) ;
#226 = CARTESIAN_POINT ( 'NONE',  ( 5.586370142149013368E-14, -1.734723475976807094E-15, 16.00000000000000000 ) ) ;
#227 = CALENDAR_DATE ( 2021, 1, 11 ) ;
#228 = COORDINATED_UNIVERSAL_TIME_OFFSET ( 1, 0, .AHEAD. ) ;
#229 = DIRECTION ( 'NONE',  ( 3.491481338843133355E-15, -1.227517819005651059E-16, 1.000000000000000000 ) ) ;
#230 = CONICAL_SURFACE ( 'NONE', #46, 4.500000000000000888, 0.7853981633974344012 ) ;
#231 = DIRECTION ( 'NONE',  ( -3.491481338843133355E-15, 1.224646799147353207E-16, -1.000000000000000000 ) ) ;
#232 = CC_DESIGN_PERSON_AND_ORGANIZATION_ASSIGNMENT ( #149, #73, ( #77 ) ) ;
#233 = DIRECTION ( 'NONE',  ( 4.275831445896959482E-31, 1.000000000000000000, 1.224646799147353207E-16 ) ) ;
#234 = LOCAL_TIME ( 13, 23, 37.00000000000000000, #147 ) ;
#235 = APPLICATION_CONTEXT ( 'configuration controlled 3d designs of mechanical parts and assemblies' ) ;
#236 = PERSON ( 'UNSPECIFIED', 'UNSPECIFIED', 'UNSPECIFIED', ('UNSPECIFIED'), ('UNSPECIFIED'), ('UNSPECIFIED') ) ;
#237 = CIRCLE ( 'NONE', #64, 4.500000000000000000 ) ;
#238 = PERSON_AND_ORGANIZATION ( #236, #83 ) ;
#239 = PLANE ( 'NONE',  #152 ) ;
#240 = APPROVAL_STATUS ( 'not_yet_approved' ) ;
#241 = FACE_OUTER_BOUND ( 'NONE', #125, .T. ) ;
#242 = COORDINATED_UNIVERSAL_TIME_OFFSET ( 1, 0, .AHEAD. ) ;
#243 = CC_DESIGN_DATE_AND_TIME_ASSIGNMENT ( #55, #2, ( #61 ) ) ;
ENDSEC;
END-ISO-10303-21;
