ISO-10303-21;
HEADER;
FILE_DESCRIPTION (( 'STEP AP203' ),
    '1' );
FILE_NAME ('57220.step',
    '2021-11-01T12:23:37',
    ( '' ),
    ( '' ),
    'SwSTEP 2.0',
    'SolidWorks 2019',
    '' );
FILE_SCHEMA (( 'CONFIG_CONTROL_DESIGN' ));
ENDSEC;

DATA;
#1 = DATE_AND_TIME ( #3, #183 ) ;
#2 = COORDINATED_UNIVERSAL_TIME_OFFSET ( 1, 0, .AHEAD. ) ;
#3 = CALENDAR_DATE ( 2021, 1, 11 ) ;
#4 = DIRECTION ( 'NONE',  ( 1.000000000000000000, 0.0000000000000000000, 0.0000000000000000000 ) ) ;
#5 = ADVANCED_BREP_SHAPE_REPRESENTATION ( '57220', ( #89, #168, #8 ), #24 ) ;
#6 = CALENDAR_DATE ( 2021, 1, 11 ) ;
#7 = APPROVAL ( #229, 'UNSPECIFIED' ) ;
#8 = AXIS2_PLACEMENT_3D ( 'NONE', #171, #121, #4 ) ;
#9 = APPROVAL_DATE_TIME ( #98, #7 ) ;
#10 = EDGE_LOOP ( 'NONE', ( #176 ) ) ;
#11 = CARTESIAN_POINT ( 'NONE',  ( 6.767167244461324493E-14, 4.999999999999995559, 19.38193731461717206 ) ) ;
#12 = CARTESIAN_POINT ( 'NONE',  ( 6.982962677686250933E-16, -2.453312193277550399E-17, 0.1999999999999995393 ) ) ;
#13 = AXIS2_PLACEMENT_3D ( 'NONE', #85, #101, #18 ) ;
#14 = FACE_OUTER_BOUND ( 'NONE', #221, .T. ) ;
#15 = EDGE_LOOP ( 'NONE', ( #196 ) ) ;
#16 = CIRCLE ( 'NONE', #206, 4.500000000000000888 ) ;
#17 = CARTESIAN_POINT ( 'NONE',  ( -3.469105965179885094E-30, -4.050000000000002487, -9.935914382774095801E-16 ) ) ;
#18 = DIRECTION ( 'NONE',  ( 0.0000000000000000000, 1.000000000000000000, 0.0000000000000000000 ) ) ;
#19 = DIRECTION ( 'NONE',  ( 3.491481338843133355E-15, -1.224646799147353207E-16, 1.000000000000000000 ) ) ;
#20 = DIRECTION ( 'NONE',  ( 3.491481338843133355E-15, -1.226656096638776648E-16, 1.000000000000000000 ) ) ;
#21 = EDGE_LOOP ( 'NONE', ( #145 ) ) ;
#22 = EDGE_CURVE ( 'NONE', #102, #102, #42, .T. ) ;
#23 = FACE_OUTER_BOUND ( 'NONE', #72, .T. ) ;
#24 =( GEOMETRIC_REPRESENTATION_CONTEXT ( 3 ) GLOBAL_UNCERTAINTY_ASSIGNED_CONTEXT ( ( #128 ) ) GLOBAL_UNIT_ASSIGNED_CONTEXT ( ( #112, #233, #126 ) ) REPRESENTATION_CONTEXT ( 'NONE', 'WORKASPACE' ) );
#25 = SHAPE_DEFINITION_REPRESENTATION ( #132, #5 ) ;
#26 = APPROVAL_PERSON_ORGANIZATION ( #81, #7, #150 ) ;
#27 = CALENDAR_DATE ( 2021, 1, 11 ) ;
#28 = APPLICATION_CONTEXT ( 'configuration controlled 3d designs of mechanical parts and assemblies' ) ;
#29 = PERSON_AND_ORGANIZATION ( #133, #200 ) ;
#30 = COORDINATED_UNIVERSAL_TIME_OFFSET ( 1, 0, .AHEAD. ) ;
#31 = CARTESIAN_POINT ( 'NONE',  ( 6.982962677686250933E-16, -2.453312193277550399E-17, 0.1999999999999995393 ) ) ;
#32 = EDGE_LOOP ( 'NONE', ( #210 ) ) ;
#33 = PERSON_AND_ORGANIZATION_ROLE ( 'creator' ) ;
#34 = CARTESIAN_POINT ( 'NONE',  ( 2.513866563967056016E-13, 4.499999999999992006, 72.00000000000000000 ) ) ;
#35 = EDGE_LOOP ( 'NONE', ( #155 ) ) ;
#36 = EDGE_LOOP ( 'NONE', ( #86 ) ) ;
#37 = ORIENTED_EDGE ( 'NONE', *, *, #225, .T. ) ;
#38 = LOCAL_TIME ( 13, 23, 37.00000000000000000, #194 ) ;
#39 = DIRECTION ( 'NONE',  ( 3.491481338843133355E-15, -1.227517819005651059E-16, 1.000000000000000000 ) ) ;
#40 = ORIENTED_EDGE ( 'NONE', *, *, #22, .F. ) ;
#41 = CC_DESIGN_PERSON_AND_ORGANIZATION_ASSIGNMENT ( #64, #137, ( #111 ) ) ;
#42 = CIRCLE ( 'NONE', #13, 5.000000000000000888 ) ;
#43 = PERSON_AND_ORGANIZATION ( #133, #200 ) ;
#44 = AXIS2_PLACEMENT_3D ( 'NONE', #143, #39, #236 ) ;
#45 = CC_DESIGN_PERSON_AND_ORGANIZATION_ASSIGNMENT ( #82, #47, ( #77 ) ) ;
#46 = LOCAL_TIME ( 13, 23, 37.00000000000000000, #30 ) ;
#47 = PERSON_AND_ORGANIZATION_ROLE ( 'design_owner' ) ;
#48 = PERSON_AND_ORGANIZATION ( #133, #200 ) ;
#49 = CARTESIAN_POINT ( 'NONE',  ( 2.513866563967056016E-13, -8.817456953860941711E-15, 72.00000000000000000 ) ) ;
#50 = PERSON_AND_ORGANIZATION ( #133, #200 ) ;
#51 = VERTEX_POINT ( 'NONE', #34 ) ;
#52 = DIRECTION ( 'NONE',  ( 0.0000000000000000000, -1.000000000000000000, 0.0000000000000000000 ) ) ;
#53 = LOCAL_TIME ( 13, 23, 37.00000000000000000, #113 ) ;
#54 = EDGE_LOOP ( 'NONE', ( #238 ) ) ;
#55 = APPLICATION_CONTEXT ( 'configuration controlled 3d designs of mechanical parts and assemblies' ) ;
#56 = DIRECTION ( 'NONE',  ( -4.305019875689115797E-31, -1.000000000000000000, -1.211755369248505057E-16 ) ) ;
#57 = CC_DESIGN_DATE_AND_TIME_ASSIGNMENT ( #174, #80, ( #71 ) ) ;
#58 = AXIS2_PLACEMENT_3D ( 'NONE', #67, #106, #177 ) ;
#59 = FACE_OUTER_BOUND ( 'NONE', #15, .T. ) ;
#60 = AXIS2_PLACEMENT_3D ( 'NONE', #83, #73, #220 ) ;
#61 = FACE_BOUND ( 'NONE', #216, .T. ) ;
#62 = CYLINDRICAL_SURFACE ( 'NONE', #94, 4.999999999999997335 ) ;
#63 = EDGE_LOOP ( 'NONE', ( #40 ) ) ;
#64 = PERSON_AND_ORGANIZATION ( #133, #200 ) ;
#65 = DIRECTION ( 'NONE',  ( 4.275831445896958607E-31, 1.000000000000000000, 1.224646799147353207E-16 ) ) ;
#66 = FACE_OUTER_BOUND ( 'NONE', #107, .T. ) ;
#67 = CARTESIAN_POINT ( 'NONE',  ( 6.767167244461324493E-14, -2.149862307622076787E-15, 19.38193731461717206 ) ) ;
#68 = DIRECTION ( 'NONE',  ( 3.491481338843133355E-15, -1.227517819005651059E-16, 1.000000000000000000 ) ) ;
#69 = CARTESIAN_POINT ( 'NONE',  ( 5.586370142149013368E-14, -4.250000000000000000, 16.00000000000000000 ) ) ;
#70 = DIRECTION ( 'NONE',  ( -3.491481338843133355E-15, 1.224646799147353207E-16, -1.000000000000000000 ) ) ;
#71 = PRODUCT_DEFINITION ( 'UNKNOWN', '', #111, #187 ) ;
#72 = EDGE_LOOP ( 'NONE', ( #146 ) ) ;
#73 = DIRECTION ( 'NONE',  ( 3.491481338843133355E-15, -1.226656096638776648E-16, 1.000000000000000000 ) ) ;
#74 = APPLICATION_PROTOCOL_DEFINITION ( 'international standard', 'config_control_design', 1994, #28 ) ;
#75 = DIRECTION ( 'NONE',  ( 3.491481338843133355E-15, -1.224646799147353207E-16, 1.000000000000000000 ) ) ;
#76 = EDGE_CURVE ( 'NONE', #139, #139, #167, .T. ) ;
#77 = PRODUCT ( '57220', '57220', '', ( #135 ) ) ;
#78 = ORIENTED_EDGE ( 'NONE', *, *, #110, .F. ) ;
#79 = APPROVAL_DATE_TIME ( #1, #88 ) ;
#80 = DATE_TIME_ROLE ( 'creation_date' ) ;
#81 = PERSON_AND_ORGANIZATION ( #133, #200 ) ;
#82 = PERSON_AND_ORGANIZATION ( #133, #200 ) ;
#83 = CARTESIAN_POINT ( 'NONE',  ( -1.734552982589942547E-30, 3.434088566918675625E-32, -4.967957191387047901E-16 ) ) ;
#84 = DIRECTION ( 'NONE',  ( 3.491481338843133355E-15, -1.227517819005651059E-16, 1.000000000000000000 ) ) ;
#85 = CARTESIAN_POINT ( 'NONE',  ( 2.496409157272839907E-13, -8.756224613903572559E-15, 71.49999999999998579 ) ) ;
#86 = ORIENTED_EDGE ( 'NONE', *, *, #87, .T. ) ;
#87 = EDGE_CURVE ( 'NONE', #195, #195, #105, .T. ) ;
#88 = APPROVAL ( #100, 'UNSPECIFIED' ) ;
#89 = MANIFOLD_SOLID_BREP ( 'Corps-Déplacer/Copier1[1]', #108 ) ;
#90 = DIRECTION ( 'NONE',  ( -4.305019875689115797E-31, -1.000000000000000000, -1.211755369248505057E-16 ) ) ;
#91 = DIRECTION ( 'NONE',  ( 0.0000000000000000000, 1.000000000000000000, 0.0000000000000000000 ) ) ;
#92 = AXIS2_PLACEMENT_3D ( 'NONE', #193, #84, #147 ) ;
#93 = DIRECTION ( 'NONE',  ( 4.275831445896959482E-31, 1.000000000000000000, 1.224646799147353207E-16 ) ) ;
#94 = AXIS2_PLACEMENT_3D ( 'NONE', #130, #203, #93 ) ;
#95 = EDGE_CURVE ( 'NONE', #118, #118, #97, .T. ) ;
#96 = CC_DESIGN_DATE_AND_TIME_ASSIGNMENT ( #231, #227, ( #129 ) ) ;
#97 = CIRCLE ( 'NONE', #166, 4.249999999999998224 ) ;
#98 = DATE_AND_TIME ( #27, #152 ) ;
#99 = COORDINATED_UNIVERSAL_TIME_OFFSET ( 1, 0, .AHEAD. ) ;
#100 = APPROVAL_STATUS ( 'not_yet_approved' ) ;
#101 = DIRECTION ( 'NONE',  ( -3.491481338843133355E-15, 1.224646799147353207E-16, -1.000000000000000000 ) ) ;
#102 = VERTEX_POINT ( 'NONE', #217 ) ;
#103 = EDGE_LOOP ( 'NONE', ( #125 ) ) ;
#104 = ADVANCED_FACE ( 'NONE', ( #178 ), #119, .T. ) ;
#105 = CIRCLE ( 'NONE', #180, 4.250000000000000000 ) ;
#106 = DIRECTION ( 'NONE',  ( -3.491481338843133355E-15, 1.227517819005651059E-16, -1.000000000000000000 ) ) ;
#107 = EDGE_LOOP ( 'NONE', ( #78 ) ) ;
#108 = CLOSED_SHELL ( 'NONE', ( #189, #169, #230, #116, #218 ) ) ;
#109 = CARTESIAN_POINT ( 'NONE',  ( 2.513866563967056016E-13, -8.817456953860941711E-15, 72.00000000000000000 ) ) ;
#110 = EDGE_CURVE ( 'NONE', #181, #181, #158, .T. ) ;
#111 = PRODUCT_DEFINITION_FORMATION_WITH_SPECIFIED_SOURCE ( 'ANY', '', #77, .NOT_KNOWN. ) ;
#112 =( LENGTH_UNIT ( ) NAMED_UNIT ( * ) SI_UNIT ( .MILLI., .METRE. ) );
#113 = COORDINATED_UNIVERSAL_TIME_OFFSET ( 1, 0, .AHEAD. ) ;
#114 = ORIENTED_EDGE ( 'NONE', *, *, #76, .F. ) ;
#115 = AXIS2_PLACEMENT_3D ( 'NONE', #234, #19, #122 ) ;
#116 = ADVANCED_FACE ( 'NONE', ( #185, #222 ), #223, .F. ) ;
#117 = PERSON_AND_ORGANIZATION_ROLE ( 'classification_officer' ) ;
#118 = VERTEX_POINT ( 'NONE', #192 ) ;
#119 = PLANE ( 'NONE',  #191 ) ;
#120 = APPLICATION_PROTOCOL_DEFINITION ( 'international standard', 'config_control_design', 1994, #55 ) ;
#121 = DIRECTION ( 'NONE',  ( 0.0000000000000000000, 0.0000000000000000000, 1.000000000000000000 ) ) ;
#122 = DIRECTION ( 'NONE',  ( -4.275831445896958607E-31, -1.000000000000000000, -1.224646799147353207E-16 ) ) ;
#123 = DIRECTION ( 'NONE',  ( 0.0000000000000000000, 1.000000000000000000, 0.0000000000000000000 ) ) ;
#124 = FACE_OUTER_BOUND ( 'NONE', #54, .T. ) ;
#125 = ORIENTED_EDGE ( 'NONE', *, *, #110, .T. ) ;
#126 =( NAMED_UNIT ( * ) SI_UNIT ( $, .STERADIAN. ) SOLID_ANGLE_UNIT ( ) );
#127 = PLANE ( 'NONE',  #115 ) ;
#128 = UNCERTAINTY_MEASURE_WITH_UNIT (LENGTH_MEASURE( 1.000000000000000082E-05 ), #112, 'distance_accuracy_value', 'NONE');
#129 = SECURITY_CLASSIFICATION ( '', '', #138 ) ;
#130 = CARTESIAN_POINT ( 'NONE',  ( 0.0000000000000000000, 0.0000000000000000000, 0.0000000000000000000 ) ) ;
#131 = ADVANCED_FACE ( 'NONE', ( #154, #124 ), #241, .T. ) ;
#132 = PRODUCT_DEFINITION_SHAPE ( 'NONE', 'NONE',  #71 ) ;
#133 = PERSON ( 'UNSPECIFIED', 'UNSPECIFIED', 'UNSPECIFIED', ('UNSPECIFIED'), ('UNSPECIFIED'), ('UNSPECIFIED') ) ;
#134 = AXIS2_PLACEMENT_3D ( 'NONE', #12, #215, #90 ) ;
#135 = MECHANICAL_CONTEXT ( 'NONE', #28, 'mechanical' ) ;
#136 = CC_DESIGN_PERSON_AND_ORGANIZATION_ASSIGNMENT ( #29, #33, ( #71 ) ) ;
#137 = PERSON_AND_ORGANIZATION_ROLE ( 'creator' ) ;
#138 = SECURITY_CLASSIFICATION_LEVEL ( 'unclassified' ) ;
#139 = VERTEX_POINT ( 'NONE', #69 ) ;
#140 = PLANE ( 'NONE',  #179 ) ;
#141 = CLOSED_SHELL ( 'NONE', ( #148, #104, #131, #151 ) ) ;
#142 = EDGE_LOOP ( 'NONE', ( #114 ) ) ;
#143 = CARTESIAN_POINT ( 'NONE',  ( 5.586370142149013368E-14, -1.734723475976807094E-15, 16.00000000000000000 ) ) ;
#144 = CC_DESIGN_APPROVAL ( #88, ( #129 ) ) ;
#145 = ORIENTED_EDGE ( 'NONE', *, *, #242, .F. ) ;
#146 = ORIENTED_EDGE ( 'NONE', *, *, #22, .T. ) ;
#147 = DIRECTION ( 'NONE',  ( -4.285855558155654155E-31, -1.000000000000000000, -1.227517819005651305E-16 ) ) ;
#148 = ADVANCED_FACE ( 'NONE', ( #157, #165 ), #237, .T. ) ;
#149 = PERSON_AND_ORGANIZATION ( #133, #200 ) ;
#150 = APPROVAL_ROLE ( '' ) ;
#151 = ADVANCED_FACE ( 'NONE', ( #66 ), #140, .F. ) ;
#152 = LOCAL_TIME ( 13, 23, 37.00000000000000000, #99 ) ;
#153 = CALENDAR_DATE ( 2021, 1, 11 ) ;
#154 = FACE_BOUND ( 'NONE', #103, .T. ) ;
#155 = ORIENTED_EDGE ( 'NONE', *, *, #242, .T. ) ;
#156 = CC_DESIGN_PERSON_AND_ORGANIZATION_ASSIGNMENT ( #48, #117, ( #129 ) ) ;
#157 = FACE_OUTER_BOUND ( 'NONE', #142, .T. ) ;
#158 = CIRCLE ( 'NONE', #60, 4.050000000000002487 ) ;
#159 = DIRECTION ( 'NONE',  ( -3.491481338843133355E-15, 1.224646799147353207E-16, -1.000000000000000000 ) ) ;
#160 = CARTESIAN_POINT ( 'NONE',  ( 5.586370142149013368E-14, 3.749399456654637451E-32, 16.00000000000000000 ) ) ;
#161 = CC_DESIGN_APPROVAL ( #7, ( #111 ) ) ;
#162 = ORIENTED_EDGE ( 'NONE', *, *, #225, .F. ) ;
#163 = VERTEX_POINT ( 'NONE', #11 ) ;
#164 = DIRECTION ( 'NONE',  ( 0.0000000000000000000, -1.000000000000000000, 0.0000000000000000000 ) ) ;
#165 = FACE_OUTER_BOUND ( 'NONE', #36, .T. ) ;
#166 = AXIS2_PLACEMENT_3D ( 'NONE', #198, #214, #164 ) ;
#167 = CIRCLE ( 'NONE', #201, 4.249999999999998224 ) ;
#168 = MANIFOLD_SOLID_BREP ( 'Corps-Déplacer/Copier1[2]', #141 ) ;
#169 = ADVANCED_FACE ( 'NONE', ( #239, #61 ), #173, .T. ) ;
#170 = APPROVAL_STATUS ( 'not_yet_approved' ) ;
#171 = CARTESIAN_POINT ( 'NONE',  ( 0.0000000000000000000, 0.0000000000000000000, 0.0000000000000000000 ) ) ;
#172 = DATE_AND_TIME ( #228, #38 ) ;
#173 = CONICAL_SURFACE ( 'NONE', #205, 4.500000000000000888, 0.7853981633974344012 ) ;
#174 = DATE_AND_TIME ( #6, #46 ) ;
#175 = APPROVAL_PERSON_ORGANIZATION ( #43, #184, #208 ) ;
#176 = ORIENTED_EDGE ( 'NONE', *, *, #95, .T. ) ;
#177 = DIRECTION ( 'NONE',  ( 0.0000000000000000000, 1.000000000000000000, 0.0000000000000000000 ) ) ;
#178 = FACE_OUTER_BOUND ( 'NONE', #32, .T. ) ;
#179 = AXIS2_PLACEMENT_3D ( 'NONE', #204, #75, #240 ) ;
#180 = AXIS2_PLACEMENT_3D ( 'NONE', #31, #20, #56 ) ;
#181 = VERTEX_POINT ( 'NONE', #17 ) ;
#182 = CARTESIAN_POINT ( 'NONE',  ( 5.586370142149013368E-14, -1.964028510409041694E-15, 16.00000000000000000 ) ) ;
#183 = LOCAL_TIME ( 13, 23, 37.00000000000000000, #2 ) ;
#184 = APPROVAL ( #170, 'UNSPECIFIED' ) ;
#185 = FACE_OUTER_BOUND ( 'NONE', #10, .T. ) ;
#186 = APPROVAL_PERSON_ORGANIZATION ( #50, #88, #190 ) ;
#187 = DESIGN_CONTEXT ( 'detailed design', #55, 'design' ) ;
#188 = DIRECTION ( 'NONE',  ( -3.491481338843133355E-15, 1.224646799147353207E-16, -1.000000000000000000 ) ) ;
#189 = ADVANCED_FACE ( 'NONE', ( #23, #224 ), #62, .T. ) ;
#190 = APPROVAL_ROLE ( '' ) ;
#191 = AXIS2_PLACEMENT_3D ( 'NONE', #160, #199, #235 ) ;
#192 = CARTESIAN_POINT ( 'NONE',  ( 5.586370142149013368E-14, -4.250000000000000000, 16.00000000000000000 ) ) ;
#193 = CARTESIAN_POINT ( 'NONE',  ( -6.413731847436034514E-31, 0.0000000000000000000, -1.836965810494968570E-16 ) ) ;
#194 = COORDINATED_UNIVERSAL_TIME_OFFSET ( 1, 0, .AHEAD. ) ;
#195 = VERTEX_POINT ( 'NONE', #197 ) ;
#196 = ORIENTED_EDGE ( 'NONE', *, *, #95, .F. ) ;
#197 = CARTESIAN_POINT ( 'NONE',  ( 6.982962677686233184E-16, -4.250000000000000000, 0.1999999999999990397 ) ) ;
#198 = CARTESIAN_POINT ( 'NONE',  ( 5.586370142149013368E-14, -1.964028510409041694E-15, 16.00000000000000000 ) ) ;
#199 = DIRECTION ( 'NONE',  ( 3.491481338843133355E-15, -1.224646799147353207E-16, 1.000000000000000000 ) ) ;
#200 = ORGANIZATION ( 'UNSPECIFIED', 'UNSPECIFIED', '' ) ;
#201 = AXIS2_PLACEMENT_3D ( 'NONE', #182, #68, #52 ) ;
#202 = CIRCLE ( 'NONE', #58, 4.999999999999997335 ) ;
#203 = DIRECTION ( 'NONE',  ( -3.491481338843133355E-15, 1.224646799147353207E-16, -1.000000000000000000 ) ) ;
#204 = CARTESIAN_POINT ( 'NONE',  ( -8.551702076470480934E-31, 2.999533309458101739E-32, -2.449304821232125005E-16 ) ) ;
#205 = AXIS2_PLACEMENT_3D ( 'NONE', #109, #188, #91 ) ;
#206 = AXIS2_PLACEMENT_3D ( 'NONE', #49, #70, #123 ) ;
#207 = CC_DESIGN_SECURITY_CLASSIFICATION ( #129, ( #111 ) ) ;
#208 = APPROVAL_ROLE ( '' ) ;
#209 = PRODUCT_RELATED_PRODUCT_CATEGORY ( 'detail', '', ( #77 ) ) ;
#210 = ORIENTED_EDGE ( 'NONE', *, *, #76, .T. ) ;
#211 = PERSON_AND_ORGANIZATION_ROLE ( 'design_supplier' ) ;
#212 = CARTESIAN_POINT ( 'NONE',  ( 2.513866563967056016E-13, 3.374459510989167028E-32, 72.00000000000000000 ) ) ;
#213 = APPROVAL_DATE_TIME ( #172, #184 ) ;
#214 = DIRECTION ( 'NONE',  ( 3.491481338843133355E-15, -1.227517819005651059E-16, 1.000000000000000000 ) ) ;
#215 = DIRECTION ( 'NONE',  ( 3.491481338843133355E-15, -1.226656096638776648E-16, 1.000000000000000000 ) ) ;
#216 = EDGE_LOOP ( 'NONE', ( #37 ) ) ;
#217 = CARTESIAN_POINT ( 'NONE',  ( 2.496409157272839907E-13, 4.999999999999992006, 71.49999999999998579 ) ) ;
#218 = ADVANCED_FACE ( 'NONE', ( #59 ), #127, .F. ) ;
#219 = CC_DESIGN_PERSON_AND_ORGANIZATION_ASSIGNMENT ( #149, #211, ( #111 ) ) ;
#220 = DIRECTION ( 'NONE',  ( -4.282846870592448247E-31, -1.000000000000000000, -1.226656096638776401E-16 ) ) ;
#221 = EDGE_LOOP ( 'NONE', ( #162 ) ) ;
#222 = FACE_OUTER_BOUND ( 'NONE', #35, .T. ) ;
#223 = TOROIDAL_SURFACE ( 'NONE', #44, 12.24999999999999467, 7.999999999999998224 ) ;
#224 = FACE_OUTER_BOUND ( 'NONE', #21, .T. ) ;
#225 = EDGE_CURVE ( 'NONE', #51, #51, #16, .T. ) ;
#226 = CC_DESIGN_APPROVAL ( #184, ( #71 ) ) ;
#227 = DATE_TIME_ROLE ( 'classification_date' ) ;
#228 = CALENDAR_DATE ( 2021, 1, 11 ) ;
#229 = APPROVAL_STATUS ( 'not_yet_approved' ) ;
#230 = ADVANCED_FACE ( 'NONE', ( #14 ), #232, .F. ) ;
#231 = DATE_AND_TIME ( #153, #53 ) ;
#232 = PLANE ( 'NONE',  #243 ) ;
#233 =( NAMED_UNIT ( * ) PLANE_ANGLE_UNIT ( ) SI_UNIT ( $, .RADIAN. ) );
#234 = CARTESIAN_POINT ( 'NONE',  ( 5.586370142149013368E-14, 3.749399456654637451E-32, 16.00000000000000000 ) ) ;
#235 = DIRECTION ( 'NONE',  ( -4.275831445896958607E-31, -1.000000000000000000, -1.224646799147353207E-16 ) ) ;
#236 = DIRECTION ( 'NONE',  ( -4.390765363205567760E-31, -1.000000000000000000, -1.227517819005651059E-16 ) ) ;
#237 = CYLINDRICAL_SURFACE ( 'NONE', #92, 4.249999999999998224 ) ;
#238 = ORIENTED_EDGE ( 'NONE', *, *, #87, .F. ) ;
#239 = FACE_OUTER_BOUND ( 'NONE', #63, .T. ) ;
#240 = DIRECTION ( 'NONE',  ( -4.275831445896958607E-31, -1.000000000000000000, -1.224646799147353207E-16 ) ) ;
#241 = CONICAL_SURFACE ( 'NONE', #134, 4.250000000000000000, 0.7853981633974430610 ) ;
#242 = EDGE_CURVE ( 'NONE', #163, #163, #202, .T. ) ;
#243 = AXIS2_PLACEMENT_3D ( 'NONE', #212, #159, #65 ) ;
ENDSEC;
END-ISO-10303-21;
