ISO-10303-21;
HEADER;
FILE_DESCRIPTION (( 'STEP AP203' ),
    '1' );
FILE_NAME ('57218.step',
    '2021-11-01T12:23:36',
    ( '' ),
    ( '' ),
    'SwSTEP 2.0',
    'SolidWorks 2019',
    '' );
FILE_SCHEMA (( 'CONFIG_CONTROL_DESIGN' ));
ENDSEC;

DATA;
#1 = ORIENTED_EDGE ( 'NONE', *, *, #37, .F. ) ;
#2 = ADVANCED_FACE ( 'NONE', ( #102, #13 ), #158, .T. ) ;
#3 = COORDINATED_UNIVERSAL_TIME_OFFSET ( 1, 0, .AHEAD. ) ;
#4 = CIRCLE ( 'NONE', #155, 3.750000000000000000 ) ;
#5 = DIRECTION ( 'NONE',  ( 3.491481338843133355E-15, -1.224646799147353207E-16, 1.000000000000000000 ) ) ;
#6 = CARTESIAN_POINT ( 'NONE',  ( 5.586370142149013368E-14, -1.734723475976807094E-15, 16.00000000000000000 ) ) ;
#7 = CALENDAR_DATE ( 2021, 1, 11 ) ;
#8 = VERTEX_POINT ( 'NONE', #120 ) ;
#9 = CARTESIAN_POINT ( 'NONE',  ( 5.586370142149013368E-14, 2.999519565323708647E-32, 16.00000000000000000 ) ) ;
#10 = PLANE ( 'NONE',  #116 ) ;
#11 = APPROVAL_ROLE ( '' ) ;
#12 = CARTESIAN_POINT ( 'NONE',  ( 5.586370142149013368E-14, -3.750000000000000888, 16.00000000000000000 ) ) ;
#13 = FACE_OUTER_BOUND ( 'NONE', #154, .T. ) ;
#14 = PERSON_AND_ORGANIZATION ( #108, #135 ) ;
#15 = AXIS2_PLACEMENT_3D ( 'NONE', #237, #60, #140 ) ;
#16 = PRODUCT_DEFINITION_SHAPE ( 'NONE', 'NONE',  #189 ) ;
#17 = APPROVAL_PERSON_ORGANIZATION ( #80, #18, #11 ) ;
#18 = APPROVAL ( #25, 'UNSPECIFIED' ) ;
#19 = CYLINDRICAL_SURFACE ( 'NONE', #233, 3.999999999999998224 ) ;
#20 = ORIENTED_EDGE ( 'NONE', *, *, #156, .T. ) ;
#21 = AXIS2_PLACEMENT_3D ( 'NONE', #44, #100, #201 ) ;
#22 = SECURITY_CLASSIFICATION ( '', '', #181 ) ;
#23 = PLANE ( 'NONE',  #89 ) ;
#24 = DIRECTION ( 'NONE',  ( 3.491481338843133355E-15, -1.227517819005651059E-16, 1.000000000000000000 ) ) ;
#25 = APPROVAL_STATUS ( 'not_yet_approved' ) ;
#26 = LOCAL_TIME ( 13, 23, 36.00000000000000000, #3 ) ;
#27 = APPROVAL_DATE_TIME ( #198, #148 ) ;
#28 = DIRECTION ( 'NONE',  ( -4.393421307637210610E-31, -1.000000000000000000, -1.227517819005651059E-16 ) ) ;
#29 = SHAPE_DEFINITION_REPRESENTATION ( #16, #192 ) ;
#30 = COORDINATED_UNIVERSAL_TIME_OFFSET ( 1, 0, .AHEAD. ) ;
#31 = ADVANCED_FACE ( 'NONE', ( #220, #144 ), #52, .T. ) ;
#32 = AXIS2_PLACEMENT_3D ( 'NONE', #6, #81, #28 ) ;
#33 = APPLICATION_PROTOCOL_DEFINITION ( 'international standard', 'config_control_design', 1994, #208 ) ;
#34 = APPLICATION_CONTEXT ( 'configuration controlled 3d designs of mechanical parts and assemblies' ) ;
#35 = EDGE_LOOP ( 'NONE', ( #1 ) ) ;
#36 = EDGE_LOOP ( 'NONE', ( #74 ) ) ;
#37 = EDGE_CURVE ( 'NONE', #234, #234, #150, .T. ) ;
#38 = CARTESIAN_POINT ( 'NONE',  ( 5.586370142149013368E-14, -3.750000000000000888, 16.00000000000000000 ) ) ;
#39 = CARTESIAN_POINT ( 'NONE',  ( 6.279189491884146894E-14, 3.999999999999996447, 17.98431348329844326 ) ) ;
#40 = CARTESIAN_POINT ( 'NONE',  ( 2.199633243471174140E-13, -7.715274834628325378E-15, 63.00000000000000000 ) ) ;
#41 = COORDINATED_UNIVERSAL_TIME_OFFSET ( 1, 0, .AHEAD. ) ;
#42 = DIRECTION ( 'NONE',  ( -4.275831445896958607E-31, -1.000000000000000000, -1.224646799147353207E-16 ) ) ;
#43 = ADVANCED_FACE ( 'NONE', ( #195 ), #88, .F. ) ;
#44 = CARTESIAN_POINT ( 'NONE',  ( 5.586370142149013368E-14, -1.964028510409041694E-15, 16.00000000000000000 ) ) ;
#45 = COORDINATED_UNIVERSAL_TIME_OFFSET ( 1, 0, .AHEAD. ) ;
#46 = AXIS2_PLACEMENT_3D ( 'NONE', #9, #65, #42 ) ;
#47 = FACE_OUTER_BOUND ( 'NONE', #211, .T. ) ;
#48 = APPROVAL_DATE_TIME ( #143, #18 ) ;
#49 = DIRECTION ( 'NONE',  ( 4.275831445896958607E-31, 1.000000000000000000, 1.224646799147353207E-16 ) ) ;
#50 = COORDINATED_UNIVERSAL_TIME_OFFSET ( 1, 0, .AHEAD. ) ;
#51 = UNCERTAINTY_MEASURE_WITH_UNIT (LENGTH_MEASURE( 1.000000000000000082E-05 ), #196, 'distance_accuracy_value', 'NONE');
#52 = CONICAL_SURFACE ( 'NONE', #229, 3.500000000000000444, 0.7853981633974482790 ) ;
#53 = DIRECTION ( 'NONE',  ( 0.0000000000000000000, 1.000000000000000000, 0.0000000000000000000 ) ) ;
#54 = FACE_OUTER_BOUND ( 'NONE', #59, .T. ) ;
#55 = CIRCLE ( 'NONE', #170, 3.500000000000000444 ) ;
#56 = EDGE_LOOP ( 'NONE', ( #20 ) ) ;
#57 = ORIENTED_EDGE ( 'NONE', *, *, #190, .F. ) ;
#58 = CLOSED_SHELL ( 'NONE', ( #236, #31, #241, #172, #43 ) ) ;
#59 = EDGE_LOOP ( 'NONE', ( #153 ) ) ;
#60 = DIRECTION ( 'NONE',  ( -3.491481338843133355E-15, 1.227517819005651059E-16, -1.000000000000000000 ) ) ;
#61 = AXIS2_PLACEMENT_3D ( 'NONE', #124, #79, #146 ) ;
#62 = CARTESIAN_POINT ( 'NONE',  ( 2.199633243471174140E-13, 2.624579619658239319E-32, 63.00000000000000000 ) ) ;
#63 = CARTESIAN_POINT ( 'NONE',  ( -6.413786353522005134E-31, 2.249653418127174030E-32, -1.836981421658449264E-16 ) ) ;
#64 = VERTEX_POINT ( 'NONE', #216 ) ;
#65 = DIRECTION ( 'NONE',  ( 3.491481338843133355E-15, -1.224646799147353207E-16, 1.000000000000000000 ) ) ;
#66 = CALENDAR_DATE ( 2021, 1, 11 ) ;
#67 = AXIS2_PLACEMENT_3D ( 'NONE', #117, #149, #217 ) ;
#68 = CC_DESIGN_PERSON_AND_ORGANIZATION_ASSIGNMENT ( #14, #232, ( #189 ) ) ;
#69 = DIRECTION ( 'NONE',  ( -4.275831445896958607E-31, -1.000000000000000000, -1.224646799147353207E-16 ) ) ;
#70 = CARTESIAN_POINT ( 'NONE',  ( 0.0000000000000000000, 0.0000000000000000000, 0.0000000000000000000 ) ) ;
#71 = PLANE ( 'NONE',  #203 ) ;
#72 = CIRCLE ( 'NONE', #61, 3.550000000000001599 ) ;
#73 = ORIENTED_EDGE ( 'NONE', *, *, #152, .F. ) ;
#74 = ORIENTED_EDGE ( 'NONE', *, *, #113, .T. ) ;
#75 = EDGE_LOOP ( 'NONE', ( #73 ) ) ;
#76 = CC_DESIGN_DATE_AND_TIME_ASSIGNMENT ( #119, #121, ( #189 ) ) ;
#77 = APPROVAL_PERSON_ORGANIZATION ( #126, #148, #159 ) ;
#78 = APPROVAL_ROLE ( '' ) ;
#79 = DIRECTION ( 'NONE',  ( 3.491481338843133355E-15, -1.226656096638776648E-16, 1.000000000000000000 ) ) ;
#80 = PERSON_AND_ORGANIZATION ( #108, #135 ) ;
#81 = DIRECTION ( 'NONE',  ( 3.491481338843133355E-15, -1.227517819005651059E-16, 1.000000000000000000 ) ) ;
#82 = CIRCLE ( 'NONE', #147, 4.000000000000000888 ) ;
#83 = PRODUCT ( '57218', '57218', '', ( #128 ) ) ;
#84 = CARTESIAN_POINT ( 'NONE',  ( 5.586370142149013368E-14, 2.999519565323708647E-32, 16.00000000000000000 ) ) ;
#85 = PERSON_AND_ORGANIZATION_ROLE ( 'creator' ) ;
#86 = DIRECTION ( 'NONE',  ( 0.0000000000000000000, 0.0000000000000000000, 1.000000000000000000 ) ) ;
#87 = ADVANCED_FACE ( 'NONE', ( #214 ), #23, .F. ) ;
#88 = PLANE ( 'NONE',  #46 ) ;
#89 = AXIS2_PLACEMENT_3D ( 'NONE', #63, #5, #169 ) ;
#90 = CC_DESIGN_SECURITY_CLASSIFICATION ( #22, ( #125 ) ) ;
#91 = DIRECTION ( 'NONE',  ( -4.365441207277734308E-31, -1.000000000000000000, -1.228762462150238276E-16 ) ) ;
#92 = CLOSED_SHELL ( 'NONE', ( #2, #95, #231, #87 ) ) ;
#93 = LOCAL_TIME ( 13, 23, 36.00000000000000000, #30 ) ;
#94 = FACE_BOUND ( 'NONE', #157, .T. ) ;
#95 = ADVANCED_FACE ( 'NONE', ( #183 ), #10, .T. ) ;
#96 = CONICAL_SURFACE ( 'NONE', #186, 3.750000000000000000, 0.7853981633974441712 ) ;
#97 = CC_DESIGN_APPROVAL ( #18, ( #125 ) ) ;
#98 = ORIENTED_EDGE ( 'NONE', *, *, #111, .T. ) ;
#99 = CC_DESIGN_PERSON_AND_ORGANIZATION_ASSIGNMENT ( #103, #85, ( #125 ) ) ;
#100 = DIRECTION ( 'NONE',  ( 3.491481338843133355E-15, -1.227517819005651059E-16, 1.000000000000000000 ) ) ;
#101 = PERSON_AND_ORGANIZATION ( #108, #135 ) ;
#102 = FACE_OUTER_BOUND ( 'NONE', #112, .T. ) ;
#103 = PERSON_AND_ORGANIZATION ( #108, #135 ) ;
#104 = CARTESIAN_POINT ( 'NONE',  ( 6.982962677686236142E-16, -3.750000000000000000, 0.1999999999999991229 ) ) ;
#105 = ORIENTED_EDGE ( 'NONE', *, *, #185, .T. ) ;
#106 = PERSON_AND_ORGANIZATION_ROLE ( 'design_supplier' ) ;
#107 = CC_DESIGN_DATE_AND_TIME_ASSIGNMENT ( #221, #161, ( #22 ) ) ;
#108 = PERSON ( 'UNSPECIFIED', 'UNSPECIFIED', 'UNSPECIFIED', ('UNSPECIFIED'), ('UNSPECIFIED'), ('UNSPECIFIED') ) ;
#109 = CARTESIAN_POINT ( 'NONE',  ( 2.182175836776958284E-13, -7.654042494670957804E-15, 62.50000000000000000 ) ) ;
#110 = AXIS2_PLACEMENT_3D ( 'NONE', #239, #24, #178 ) ;
#111 = EDGE_CURVE ( 'NONE', #179, #179, #72, .T. ) ;
#112 = EDGE_LOOP ( 'NONE', ( #114 ) ) ;
#113 = EDGE_CURVE ( 'NONE', #230, #230, #130, .T. ) ;
#114 = ORIENTED_EDGE ( 'NONE', *, *, #113, .F. ) ;
#115 = VERTEX_POINT ( 'NONE', #39 ) ;
#116 = AXIS2_PLACEMENT_3D ( 'NONE', #84, #164, #69 ) ;
#117 = CARTESIAN_POINT ( 'NONE',  ( 5.586370142149013368E-14, -1.964028510409041694E-15, 16.00000000000000000 ) ) ;
#118 = CALENDAR_DATE ( 2021, 1, 11 ) ;
#119 = DATE_AND_TIME ( #213, #93 ) ;
#120 = CARTESIAN_POINT ( 'NONE',  ( 2.199633243471174140E-13, 3.499999999999992895, 63.00000000000000000 ) ) ;
#121 = DATE_TIME_ROLE ( 'creation_date' ) ;
#122 = APPROVAL ( #175, 'UNSPECIFIED' ) ;
#123 = PERSON_AND_ORGANIZATION ( #108, #135 ) ;
#124 = CARTESIAN_POINT ( 'NONE',  ( -1.520410639060319697E-30, 2.681745977208134205E-32, -4.354629143067658961E-16 ) ) ;
#125 = PRODUCT_DEFINITION_FORMATION_WITH_SPECIFIED_SOURCE ( 'ANY', '', #83, .NOT_KNOWN. ) ;
#126 = PERSON_AND_ORGANIZATION ( #108, #135 ) ;
#127 = DIRECTION ( 'NONE',  ( -3.491481338843133355E-15, 1.224646799147353207E-16, -1.000000000000000000 ) ) ;
#128 = MECHANICAL_CONTEXT ( 'NONE', #34, 'mechanical' ) ;
#129 = FACE_OUTER_BOUND ( 'NONE', #184, .T. ) ;
#130 = CIRCLE ( 'NONE', #21, 3.749999999999998668 ) ;
#131 = APPLICATION_PROTOCOL_DEFINITION ( 'international standard', 'config_control_design', 1994, #34 ) ;
#132 = FACE_OUTER_BOUND ( 'NONE', #228, .T. ) ;
#133 = MANIFOLD_SOLID_BREP ( 'Corps-Déplacer/Copier1[1]', #58 ) ;
#134 = LOCAL_TIME ( 13, 23, 36.00000000000000000, #50 ) ;
#135 = ORGANIZATION ( 'UNSPECIFIED', 'UNSPECIFIED', '' ) ;
#136 = EDGE_LOOP ( 'NONE', ( #191 ) ) ;
#137 = ORIENTED_EDGE ( 'NONE', *, *, #152, .T. ) ;
#138 =( NAMED_UNIT ( * ) PLANE_ANGLE_UNIT ( ) SI_UNIT ( $, .RADIAN. ) );
#139 = CIRCLE ( 'NONE', #15, 3.999999999999998224 ) ;
#140 = DIRECTION ( 'NONE',  ( 0.0000000000000000000, 1.000000000000000000, 0.0000000000000000000 ) ) ;
#141 = CARTESIAN_POINT ( 'NONE',  ( -3.040821278120639394E-30, -3.550000000000001599, -8.709258286135317921E-16 ) ) ;
#142 = DIRECTION ( 'NONE',  ( 0.0000000000000000000, 1.000000000000000000, 0.0000000000000000000 ) ) ;
#143 = DATE_AND_TIME ( #199, #134 ) ;
#144 = FACE_BOUND ( 'NONE', #56, .T. ) ;
#145 = PERSON_AND_ORGANIZATION_ROLE ( 'design_owner' ) ;
#146 = DIRECTION ( 'NONE',  ( -4.282846870592448247E-31, -1.000000000000000000, -1.226656096638776648E-16 ) ) ;
#147 = AXIS2_PLACEMENT_3D ( 'NONE', #109, #206, #53 ) ;
#148 = APPROVAL ( #168, 'UNSPECIFIED' ) ;
#149 = DIRECTION ( 'NONE',  ( 3.491481338843133355E-15, -1.227517819005651059E-16, 1.000000000000000000 ) ) ;
#150 = CIRCLE ( 'NONE', #67, 3.749999999999998668 ) ;
#151 =( GEOMETRIC_REPRESENTATION_CONTEXT ( 3 ) GLOBAL_UNCERTAINTY_ASSIGNED_CONTEXT ( ( #51 ) ) GLOBAL_UNIT_ASSIGNED_CONTEXT ( ( #196, #138, #166 ) ) REPRESENTATION_CONTEXT ( 'NONE', 'WORKASPACE' ) );
#152 = EDGE_CURVE ( 'NONE', #115, #115, #139, .T. ) ;
#153 = ORIENTED_EDGE ( 'NONE', *, *, #190, .T. ) ;
#154 = EDGE_LOOP ( 'NONE', ( #105 ) ) ;
#155 = AXIS2_PLACEMENT_3D ( 'NONE', #180, #160, #235 ) ;
#156 = EDGE_CURVE ( 'NONE', #8, #8, #55, .T. ) ;
#157 = EDGE_LOOP ( 'NONE', ( #98 ) ) ;
#158 = CYLINDRICAL_SURFACE ( 'NONE', #110, 3.749999999999998224 ) ;
#159 = APPROVAL_ROLE ( '' ) ;
#160 = DIRECTION ( 'NONE',  ( 3.491481338843133355E-15, -1.226656096638776648E-16, 1.000000000000000000 ) ) ;
#161 = DATE_TIME_ROLE ( 'classification_date' ) ;
#162 = DIRECTION ( 'NONE',  ( 1.000000000000000000, 0.0000000000000000000, 0.0000000000000000000 ) ) ;
#163 = DIRECTION ( 'NONE',  ( 4.275831445896958607E-31, 1.000000000000000000, 1.224646799147353207E-16 ) ) ;
#164 = DIRECTION ( 'NONE',  ( 3.491481338843133355E-15, -1.224646799147353207E-16, 1.000000000000000000 ) ) ;
#165 = APPROVAL_DATE_TIME ( #215, #122 ) ;
#166 =( NAMED_UNIT ( * ) SI_UNIT ( $, .STERADIAN. ) SOLID_ANGLE_UNIT ( ) );
#167 = DIRECTION ( 'NONE',  ( -3.491481338843133355E-15, 1.224646799147353207E-16, -1.000000000000000000 ) ) ;
#168 = APPROVAL_STATUS ( 'not_yet_approved' ) ;
#169 = DIRECTION ( 'NONE',  ( -4.275831445896958607E-31, -1.000000000000000000, -1.224646799147353207E-16 ) ) ;
#170 = AXIS2_PLACEMENT_3D ( 'NONE', #212, #167, #197 ) ;
#171 = LOCAL_TIME ( 13, 23, 36.00000000000000000, #45 ) ;
#172 = ADVANCED_FACE ( 'NONE', ( #47, #202 ), #225, .F. ) ;
#173 = CC_DESIGN_APPROVAL ( #122, ( #189 ) ) ;
#174 = PRODUCT_RELATED_PRODUCT_CATEGORY ( 'detail', '', ( #83 ) ) ;
#175 = APPROVAL_STATUS ( 'not_yet_approved' ) ;
#176 = ORIENTED_EDGE ( 'NONE', *, *, #185, .F. ) ;
#177 = CC_DESIGN_PERSON_AND_ORGANIZATION_ASSIGNMENT ( #218, #187, ( #22 ) ) ;
#178 = DIRECTION ( 'NONE',  ( -4.285855558155653280E-31, -1.000000000000000000, -1.227517819005650812E-16 ) ) ;
#179 = VERTEX_POINT ( 'NONE', #141 ) ;
#180 = CARTESIAN_POINT ( 'NONE',  ( 6.982962677686251919E-16, -2.453312193277550707E-17, 0.1999999999999995670 ) ) ;
#181 = SECURITY_CLASSIFICATION_LEVEL ( 'unclassified' ) ;
#182 = VERTEX_POINT ( 'NONE', #104 ) ;
#183 = FACE_OUTER_BOUND ( 'NONE', #36, .T. ) ;
#184 = EDGE_LOOP ( 'NONE', ( #176 ) ) ;
#185 = EDGE_CURVE ( 'NONE', #182, #182, #4, .T. ) ;
#186 = AXIS2_PLACEMENT_3D ( 'NONE', #240, #188, #91 ) ;
#187 = PERSON_AND_ORGANIZATION_ROLE ( 'classification_officer' ) ;
#188 = DIRECTION ( 'NONE',  ( 3.491481338843133355E-15, -1.226656096638776648E-16, 1.000000000000000000 ) ) ;
#189 = PRODUCT_DEFINITION ( 'UNKNOWN', '', #125, #222 ) ;
#190 = EDGE_CURVE ( 'NONE', #64, #64, #82, .T. ) ;
#191 = ORIENTED_EDGE ( 'NONE', *, *, #111, .F. ) ;
#192 = ADVANCED_BREP_SHAPE_REPRESENTATION ( '57218', ( #133, #209, #242 ), #151 ) ;
#193 = ORIENTED_EDGE ( 'NONE', *, *, #37, .T. ) ;
#194 = CC_DESIGN_APPROVAL ( #148, ( #22 ) ) ;
#195 = FACE_OUTER_BOUND ( 'NONE', #35, .T. ) ;
#196 =( LENGTH_UNIT ( ) NAMED_UNIT ( * ) SI_UNIT ( .MILLI., .METRE. ) );
#197 = DIRECTION ( 'NONE',  ( 0.0000000000000000000, 1.000000000000000000, 0.0000000000000000000 ) ) ;
#198 = DATE_AND_TIME ( #66, #223 ) ;
#199 = CALENDAR_DATE ( 2021, 1, 11 ) ;
#200 = APPROVAL_PERSON_ORGANIZATION ( #123, #122, #78 ) ;
#201 = DIRECTION ( 'NONE',  ( 0.0000000000000000000, -1.000000000000000000, 0.0000000000000000000 ) ) ;
#202 = FACE_OUTER_BOUND ( 'NONE', #226, .T. ) ;
#203 = AXIS2_PLACEMENT_3D ( 'NONE', #62, #210, #163 ) ;
#204 = CC_DESIGN_PERSON_AND_ORGANIZATION_ASSIGNMENT ( #238, #145, ( #83 ) ) ;
#205 = DIRECTION ( 'NONE',  ( -3.491481338843133355E-15, 1.224646799147353207E-16, -1.000000000000000000 ) ) ;
#206 = DIRECTION ( 'NONE',  ( -3.491481338843133355E-15, 1.224646799147353207E-16, -1.000000000000000000 ) ) ;
#207 = ORIENTED_EDGE ( 'NONE', *, *, #156, .F. ) ;
#208 = APPLICATION_CONTEXT ( 'configuration controlled 3d designs of mechanical parts and assemblies' ) ;
#209 = MANIFOLD_SOLID_BREP ( 'Corps-Déplacer/Copier1[2]', #92 ) ;
#210 = DIRECTION ( 'NONE',  ( -3.491481338843133355E-15, 1.224646799147353207E-16, -1.000000000000000000 ) ) ;
#211 = EDGE_LOOP ( 'NONE', ( #193 ) ) ;
#212 = CARTESIAN_POINT ( 'NONE',  ( 2.199633243471174140E-13, -7.715274834628325378E-15, 63.00000000000000000 ) ) ;
#213 = CALENDAR_DATE ( 2021, 1, 11 ) ;
#214 = FACE_OUTER_BOUND ( 'NONE', #136, .T. ) ;
#215 = DATE_AND_TIME ( #118, #26 ) ;
#216 = CARTESIAN_POINT ( 'NONE',  ( 2.182175836776958284E-13, 3.999999999999993339, 62.50000000000000000 ) ) ;
#217 = DIRECTION ( 'NONE',  ( 0.0000000000000000000, -1.000000000000000000, 0.0000000000000000000 ) ) ;
#218 = PERSON_AND_ORGANIZATION ( #108, #135 ) ;
#219 = CC_DESIGN_PERSON_AND_ORGANIZATION_ASSIGNMENT ( #101, #106, ( #125 ) ) ;
#220 = FACE_OUTER_BOUND ( 'NONE', #227, .T. ) ;
#221 = DATE_AND_TIME ( #7, #171 ) ;
#222 = DESIGN_CONTEXT ( 'detailed design', #208, 'design' ) ;
#223 = LOCAL_TIME ( 13, 23, 36.00000000000000000, #41 ) ;
#224 = CARTESIAN_POINT ( 'NONE',  ( 0.0000000000000000000, 0.0000000000000000000, 0.0000000000000000000 ) ) ;
#225 = TOROIDAL_SURFACE ( 'NONE', #32, 11.74999999999999822, 8.000000000000000000 ) ;
#226 = EDGE_LOOP ( 'NONE', ( #137 ) ) ;
#227 = EDGE_LOOP ( 'NONE', ( #57 ) ) ;
#228 = EDGE_LOOP ( 'NONE', ( #207 ) ) ;
#229 = AXIS2_PLACEMENT_3D ( 'NONE', #40, #127, #142 ) ;
#230 = VERTEX_POINT ( 'NONE', #38 ) ;
#231 = ADVANCED_FACE ( 'NONE', ( #94, #129 ), #96, .T. ) ;
#232 = PERSON_AND_ORGANIZATION_ROLE ( 'creator' ) ;
#233 = AXIS2_PLACEMENT_3D ( 'NONE', #224, #205, #49 ) ;
#234 = VERTEX_POINT ( 'NONE', #12 ) ;
#235 = DIRECTION ( 'NONE',  ( -4.365441207277734308E-31, -1.000000000000000000, -1.228762462150238276E-16 ) ) ;
#236 = ADVANCED_FACE ( 'NONE', ( #54, #243 ), #19, .T. ) ;
#237 = CARTESIAN_POINT ( 'NONE',  ( 6.279189491884146894E-14, -1.978301491901008397E-15, 17.98431348329844326 ) ) ;
#238 = PERSON_AND_ORGANIZATION ( #108, #135 ) ;
#239 = CARTESIAN_POINT ( 'NONE',  ( -6.413731847436034514E-31, 0.0000000000000000000, -1.836965810494968570E-16 ) ) ;
#240 = CARTESIAN_POINT ( 'NONE',  ( 6.982962677686251919E-16, -2.453312193277550707E-17, 0.1999999999999995670 ) ) ;
#241 = ADVANCED_FACE ( 'NONE', ( #132 ), #71, .F. ) ;
#242 = AXIS2_PLACEMENT_3D ( 'NONE', #70, #86, #162 ) ;
#243 = FACE_OUTER_BOUND ( 'NONE', #75, .T. ) ;
ENDSEC;
END-ISO-10303-21;
