ISO-10303-21;
HEADER;
FILE_DESCRIPTION (( 'STEP AP203' ),
    '1' );
FILE_NAME ('57217.step',
    '2021-11-01T12:23:36',
    ( '' ),
    ( '' ),
    'SwSTEP 2.0',
    'SolidWorks 2019',
    '' );
FILE_SCHEMA (( 'CONFIG_CONTROL_DESIGN' ));
ENDSEC;

DATA;
#1 = PERSON_AND_ORGANIZATION_ROLE ( 'classification_officer' ) ;
#2 = ADVANCED_FACE ( 'NONE', ( #155, #185 ), #3, .T. ) ;
#3 = CONICAL_SURFACE ( 'NONE', #24, 3.500000000000000000, 0.7853981633974445042 ) ;
#4 = ORIENTED_EDGE ( 'NONE', *, *, #42, .F. ) ;
#5 = DIRECTION ( 'NONE',  ( -3.491481338843133355E-15, 1.227517819005651059E-16, -1.000000000000000000 ) ) ;
#6 = ORIENTED_EDGE ( 'NONE', *, *, #18, .T. ) ;
#7 = CARTESIAN_POINT ( 'NONE',  ( -2.826678934591017419E-30, -3.300000000000001599, -8.095930237815930460E-16 ) ) ;
#8 = PLANE ( 'NONE',  #75 ) ;
#9 = AXIS2_PLACEMENT_3D ( 'NONE', #176, #194, #143 ) ;
#10 = DIRECTION ( 'NONE',  ( 3.491481338843133355E-15, -1.224646799147353207E-16, 1.000000000000000000 ) ) ;
#11 = CC_DESIGN_DATE_AND_TIME_ASSIGNMENT ( #55, #69, ( #228 ) ) ;
#12 = PERSON_AND_ORGANIZATION_ROLE ( 'design_supplier' ) ;
#13 = COORDINATED_UNIVERSAL_TIME_OFFSET ( 1, 0, .AHEAD. ) ;
#14 = PERSON_AND_ORGANIZATION ( #36, #203 ) ;
#15 = APPROVAL_DATE_TIME ( #181, #56 ) ;
#16 = ORIENTED_EDGE ( 'NONE', *, *, #42, .T. ) ;
#17 = CARTESIAN_POINT ( 'NONE',  ( 6.982962677686249947E-16, -2.453312193277550091E-17, 0.1999999999999995115 ) ) ;
#18 = EDGE_CURVE ( 'NONE', #25, #25, #152, .T. ) ;
#19 = DIRECTION ( 'NONE',  ( 0.0000000000000000000, -1.000000000000000000, 0.0000000000000000000 ) ) ;
#20 = EDGE_LOOP ( 'NONE', ( #4 ) ) ;
#21 = AXIS2_PLACEMENT_3D ( 'NONE', #188, #40, #227 ) ;
#22 = FACE_OUTER_BOUND ( 'NONE', #31, .T. ) ;
#23 = FACE_OUTER_BOUND ( 'NONE', #118, .T. ) ;
#24 = AXIS2_PLACEMENT_3D ( 'NONE', #17, #135, #98 ) ;
#25 = VERTEX_POINT ( 'NONE', #7 ) ;
#26 = CC_DESIGN_PERSON_AND_ORGANIZATION_ASSIGNMENT ( #91, #12, ( #59 ) ) ;
#27 = CALENDAR_DATE ( 2021, 1, 11 ) ;
#28 = AXIS2_PLACEMENT_3D ( 'NONE', #39, #80, #77 ) ;
#29 = ORIENTED_EDGE ( 'NONE', *, *, #224, .T. ) ;
#30 = APPROVAL_DATE_TIME ( #221, #213 ) ;
#31 = EDGE_LOOP ( 'NONE', ( #109 ) ) ;
#32 = APPROVAL_ROLE ( '' ) ;
#33 = DIRECTION ( 'NONE',  ( 0.0000000000000000000, 0.0000000000000000000, 1.000000000000000000 ) ) ;
#34 = CC_DESIGN_APPROVAL ( #56, ( #59 ) ) ;
#35 = APPROVAL ( #243, 'UNSPECIFIED' ) ;
#36 = PERSON ( 'UNSPECIFIED', 'UNSPECIFIED', 'UNSPECIFIED', ('UNSPECIFIED'), ('UNSPECIFIED'), ('UNSPECIFIED') ) ;
#37 = DIRECTION ( 'NONE',  ( 0.0000000000000000000, 1.000000000000000000, 0.0000000000000000000 ) ) ;
#38 = ORIENTED_EDGE ( 'NONE', *, *, #175, .T. ) ;
#39 = CARTESIAN_POINT ( 'NONE',  ( 2.199633243471174140E-13, -7.715274834628325378E-15, 63.00000000000000000 ) ) ;
#40 = DIRECTION ( 'NONE',  ( 3.491481338843133355E-15, -1.226656096638776648E-16, 1.000000000000000000 ) ) ;
#41 = CARTESIAN_POINT ( 'NONE',  ( 2.182175836776958284E-13, 3.999999999999993339, 62.50000000000000000 ) ) ;
#42 = EDGE_CURVE ( 'NONE', #144, #144, #141, .T. ) ;
#43 = ADVANCED_FACE ( 'NONE', ( #96, #120 ), #154, .T. ) ;
#44 = FACE_OUTER_BOUND ( 'NONE', #52, .T. ) ;
#45 = AXIS2_PLACEMENT_3D ( 'NONE', #82, #66, #157 ) ;
#46 = APPLICATION_CONTEXT ( 'configuration controlled 3d designs of mechanical parts and assemblies' ) ;
#47 = MANIFOLD_SOLID_BREP ( 'Corps-Déplacer/Copier1[1]', #205 ) ;
#48 = APPROVAL_DATE_TIME ( #70, #35 ) ;
#49 = ORIENTED_EDGE ( 'NONE', *, *, #90, .F. ) ;
#50 = APPROVAL_ROLE ( '' ) ;
#51 = PRODUCT ( '57217', '57217', '', ( #223 ) ) ;
#52 = EDGE_LOOP ( 'NONE', ( #216 ) ) ;
#53 = CALENDAR_DATE ( 2021, 1, 11 ) ;
#54 = EDGE_LOOP ( 'NONE', ( #129 ) ) ;
#55 = DATE_AND_TIME ( #146, #183 ) ;
#56 = APPROVAL ( #147, 'UNSPECIFIED' ) ;
#57 = CARTESIAN_POINT ( 'NONE',  ( 0.0000000000000000000, 0.0000000000000000000, 0.0000000000000000000 ) ) ;
#58 = FACE_OUTER_BOUND ( 'NONE', #54, .T. ) ;
#59 = PRODUCT_DEFINITION_FORMATION_WITH_SPECIFIED_SOURCE ( 'ANY', '', #51, .NOT_KNOWN. ) ;
#60 = FACE_OUTER_BOUND ( 'NONE', #150, .T. ) ;
#61 = DIRECTION ( 'NONE',  ( -4.285855558155653280E-31, -1.000000000000000000, -1.227517819005651059E-16 ) ) ;
#62 = AXIS2_PLACEMENT_3D ( 'NONE', #165, #153, #76 ) ;
#63 = CARTESIAN_POINT ( 'NONE',  ( 2.199633243471174140E-13, 2.624579619658239319E-32, 63.00000000000000000 ) ) ;
#64 = DIRECTION ( 'NONE',  ( -3.491481338843133355E-15, 1.224646799147353207E-16, -1.000000000000000000 ) ) ;
#65 = EDGE_CURVE ( 'NONE', #160, #160, #179, .T. ) ;
#66 = DIRECTION ( 'NONE',  ( 3.491481338843133355E-15, -1.226656096638776648E-16, 1.000000000000000000 ) ) ;
#67 = AXIS2_PLACEMENT_3D ( 'NONE', #204, #5, #151 ) ;
#68 = PERSON_AND_ORGANIZATION_ROLE ( 'design_owner' ) ;
#69 = DATE_TIME_ROLE ( 'classification_date' ) ;
#70 = DATE_AND_TIME ( #178, #79 ) ;
#71 = PRODUCT_DEFINITION_SHAPE ( 'NONE', 'NONE',  #73 ) ;
#72 = SHAPE_DEFINITION_REPRESENTATION ( #71, #191 ) ;
#73 = PRODUCT_DEFINITION ( 'UNKNOWN', '', #59, #99 ) ;
#74 = CLOSED_SHELL ( 'NONE', ( #94, #134, #2, #81 ) ) ;
#75 = AXIS2_PLACEMENT_3D ( 'NONE', #235, #158, #106 ) ;
#76 = DIRECTION ( 'NONE',  ( -4.275831445896958607E-31, -1.000000000000000000, -1.224646799147353207E-16 ) ) ;
#77 = DIRECTION ( 'NONE',  ( 0.0000000000000000000, 1.000000000000000000, 0.0000000000000000000 ) ) ;
#78 = EDGE_LOOP ( 'NONE', ( #16 ) ) ;
#79 = LOCAL_TIME ( 13, 23, 36.00000000000000000, #202 ) ;
#80 = DIRECTION ( 'NONE',  ( -3.491481338843133355E-15, 1.224646799147353207E-16, -1.000000000000000000 ) ) ;
#81 = ADVANCED_FACE ( 'NONE', ( #189 ), #115, .F. ) ;
#82 = CARTESIAN_POINT ( 'NONE',  ( 6.982962677686249947E-16, -2.453312193277550091E-17, 0.1999999999999995115 ) ) ;
#83 = CIRCLE ( 'NONE', #67, 3.999999999999998224 ) ;
#84 = FACE_OUTER_BOUND ( 'NONE', #111, .T. ) ;
#85 = ADVANCED_FACE ( 'NONE', ( #187, #226 ), #206, .T. ) ;
#86 = CARTESIAN_POINT ( 'NONE',  ( 4.538925740496072731E-14, -3.499999999999999556, 12.99999999999999822 ) ) ;
#87 = FACE_OUTER_BOUND ( 'NONE', #116, .T. ) ;
#88 = ORIENTED_EDGE ( 'NONE', *, *, #175, .F. ) ;
#89 = COORDINATED_UNIVERSAL_TIME_OFFSET ( 1, 0, .AHEAD. ) ;
#90 = EDGE_CURVE ( 'NONE', #122, #122, #83, .T. ) ;
#91 = PERSON_AND_ORGANIZATION ( #36, #203 ) ;
#92 = PERSON_AND_ORGANIZATION ( #36, #203 ) ;
#93 = CALENDAR_DATE ( 2021, 1, 11 ) ;
#94 = ADVANCED_FACE ( 'NONE', ( #58, #60 ), #140, .T. ) ;
#95 = LOCAL_TIME ( 13, 23, 36.00000000000000000, #89 ) ;
#96 = FACE_OUTER_BOUND ( 'NONE', #20, .T. ) ;
#97 = AXIS2_PLACEMENT_3D ( 'NONE', #169, #231, #19 ) ;
#98 = DIRECTION ( 'NONE',  ( -4.402125587170824932E-31, -1.000000000000000000, -1.239088197126290817E-16 ) ) ;
#99 = DESIGN_CONTEXT ( 'detailed design', #196, 'design' ) ;
#100 = EDGE_LOOP ( 'NONE', ( #29 ) ) ;
#101 = CARTESIAN_POINT ( 'NONE',  ( 2.182175836776958284E-13, -7.654042494670957804E-15, 62.50000000000000000 ) ) ;
#102 = CC_DESIGN_SECURITY_CLASSIFICATION ( #228, ( #59 ) ) ;
#103 = DIRECTION ( 'NONE',  ( -4.275831445896958607E-31, -1.000000000000000000, -1.224646799147353207E-16 ) ) ;
#104 = AXIS2_PLACEMENT_3D ( 'NONE', #142, #215, #156 ) ;
#105 = CARTESIAN_POINT ( 'NONE',  ( 4.538925740496072731E-14, -3.499999999999999556, 12.99999999999999822 ) ) ;
#106 = DIRECTION ( 'NONE',  ( -4.275831445896958607E-31, -1.000000000000000000, -1.224646799147353207E-16 ) ) ;
#107 = EDGE_LOOP ( 'NONE', ( #88 ) ) ;
#108 = PERSON_AND_ORGANIZATION ( #36, #203 ) ;
#109 = ORIENTED_EDGE ( 'NONE', *, *, #90, .T. ) ;
#110 = APPROVAL_PERSON_ORGANIZATION ( #92, #35, #217 ) ;
#111 = EDGE_LOOP ( 'NONE', ( #198 ) ) ;
#112 = PERSON_AND_ORGANIZATION ( #36, #203 ) ;
#113 = APPLICATION_PROTOCOL_DEFINITION ( 'international standard', 'config_control_design', 1994, #46 ) ;
#114 = CC_DESIGN_APPROVAL ( #35, ( #228 ) ) ;
#115 = PLANE ( 'NONE',  #62 ) ;
#116 = EDGE_LOOP ( 'NONE', ( #220 ) ) ;
#117 = AXIS2_PLACEMENT_3D ( 'NONE', #236, #209, #210 ) ;
#118 = EDGE_LOOP ( 'NONE', ( #177 ) ) ;
#119 = ADVANCED_FACE ( 'NONE', ( #44, #22 ), #125, .F. ) ;
#120 = FACE_BOUND ( 'NONE', #100, .T. ) ;
#121 = LOCAL_TIME ( 13, 23, 36.00000000000000000, #225 ) ;
#122 = VERTEX_POINT ( 'NONE', #214 ) ;
#123 = CARTESIAN_POINT ( 'NONE',  ( 4.538925740496073362E-14, 2.999519565323708647E-32, 13.00000000000000000 ) ) ;
#124 = VERTEX_POINT ( 'NONE', #105 ) ;
#125 = TOROIDAL_SURFACE ( 'NONE', #117, 11.49999999999999822, 8.000000000000000000 ) ;
#126 = DIRECTION ( 'NONE',  ( 4.275831445896958607E-31, 1.000000000000000000, 1.224646799147353207E-16 ) ) ;
#127 = PERSON_AND_ORGANIZATION ( #36, #203 ) ;
#128 = EDGE_CURVE ( 'NONE', #124, #124, #197, .T. ) ;
#129 = ORIENTED_EDGE ( 'NONE', *, *, #128, .F. ) ;
#130 = PERSON_AND_ORGANIZATION_ROLE ( 'creator' ) ;
#131 = CC_DESIGN_APPROVAL ( #213, ( #73 ) ) ;
#132 = DIRECTION ( 'NONE',  ( 1.000000000000000000, 0.0000000000000000000, 0.0000000000000000000 ) ) ;
#133 = LOCAL_TIME ( 13, 23, 36.00000000000000000, #241 ) ;
#134 = ADVANCED_FACE ( 'NONE', ( #23 ), #232, .T. ) ;
#135 = DIRECTION ( 'NONE',  ( 3.491481338843133355E-15, -1.226656096638776648E-16, 1.000000000000000000 ) ) ;
#136 = UNCERTAINTY_MEASURE_WITH_UNIT (LENGTH_MEASURE( 1.000000000000000082E-05 ), #190, 'distance_accuracy_value', 'NONE');
#137 = CARTESIAN_POINT ( 'NONE',  ( -6.413731847436034514E-31, 0.0000000000000000000, -1.836965810494968570E-16 ) ) ;
#138 = AXIS2_PLACEMENT_3D ( 'NONE', #240, #33, #132 ) ;
#139 = ADVANCED_FACE ( 'NONE', ( #84 ), #212, .F. ) ;
#140 = CYLINDRICAL_SURFACE ( 'NONE', #164, 3.499999999999997780 ) ;
#141 = CIRCLE ( 'NONE', #149, 4.000000000000000888 ) ;
#142 = CARTESIAN_POINT ( 'NONE',  ( 4.538925740496072731E-14, -1.595773164707346130E-15, 12.99999999999999822 ) ) ;
#143 = DIRECTION ( 'NONE',  ( 0.0000000000000000000, 1.000000000000000000, 0.0000000000000000000 ) ) ;
#144 = VERTEX_POINT ( 'NONE', #41 ) ;
#145 = CC_DESIGN_PERSON_AND_ORGANIZATION_ASSIGNMENT ( #127, #68, ( #51 ) ) ;
#146 = CALENDAR_DATE ( 2021, 1, 11 ) ;
#147 = APPROVAL_STATUS ( 'not_yet_approved' ) ;
#148 = CC_DESIGN_DATE_AND_TIME_ASSIGNMENT ( #199, #195, ( #73 ) ) ;
#149 = AXIS2_PLACEMENT_3D ( 'NONE', #101, #229, #37 ) ;
#150 = EDGE_LOOP ( 'NONE', ( #38 ) ) ;
#151 = DIRECTION ( 'NONE',  ( 0.0000000000000000000, 1.000000000000000000, 0.0000000000000000000 ) ) ;
#152 = CIRCLE ( 'NONE', #21, 3.300000000000001599 ) ;
#153 = DIRECTION ( 'NONE',  ( 3.491481338843133355E-15, -1.224646799147353207E-16, 1.000000000000000000 ) ) ;
#154 = CONICAL_SURFACE ( 'NONE', #28, 3.500000000000000444, 0.7853981633974482790 ) ;
#155 = FACE_BOUND ( 'NONE', #200, .T. ) ;
#156 = DIRECTION ( 'NONE',  ( 0.0000000000000000000, -1.000000000000000000, 0.0000000000000000000 ) ) ;
#157 = DIRECTION ( 'NONE',  ( -4.402125587170824932E-31, -1.000000000000000000, -1.239088197126290817E-16 ) ) ;
#158 = DIRECTION ( 'NONE',  ( 3.491481338843133355E-15, -1.224646799147353207E-16, 1.000000000000000000 ) ) ;
#159 = VERTEX_POINT ( 'NONE', #233 ) ;
#160 = VERTEX_POINT ( 'NONE', #86 ) ;
#161 = PERSON_AND_ORGANIZATION ( #36, #203 ) ;
#162 = SECURITY_CLASSIFICATION_LEVEL ( 'unclassified' ) ;
#163 = ADVANCED_FACE ( 'NONE', ( #87 ), #8, .F. ) ;
#164 = AXIS2_PLACEMENT_3D ( 'NONE', #137, #208, #61 ) ;
#165 = CARTESIAN_POINT ( 'NONE',  ( -6.413786353522005134E-31, 2.249653418127174030E-32, -1.836981421658449264E-16 ) ) ;
#166 = CC_DESIGN_PERSON_AND_ORGANIZATION_ASSIGNMENT ( #14, #180, ( #73 ) ) ;
#167 = DIRECTION ( 'NONE',  ( -3.491481338843133355E-15, 1.224646799147353207E-16, -1.000000000000000000 ) ) ;
#168 = DIRECTION ( 'NONE',  ( 4.275831445896958607E-31, 1.000000000000000000, 1.224646799147353207E-16 ) ) ;
#169 = CARTESIAN_POINT ( 'NONE',  ( 4.538925740496072731E-14, -1.595773164707346130E-15, 12.99999999999999822 ) ) ;
#170 = CIRCLE ( 'NONE', #45, 3.500000000000000000 ) ;
#171 = VERTEX_POINT ( 'NONE', #174 ) ;
#172 =( NAMED_UNIT ( * ) SI_UNIT ( $, .STERADIAN. ) SOLID_ANGLE_UNIT ( ) );
#173 =( GEOMETRIC_REPRESENTATION_CONTEXT ( 3 ) GLOBAL_UNCERTAINTY_ASSIGNED_CONTEXT ( ( #136 ) ) GLOBAL_UNIT_ASSIGNED_CONTEXT ( ( #190, #192, #172 ) ) REPRESENTATION_CONTEXT ( 'NONE', 'WORKASPACE' ) );
#174 = CARTESIAN_POINT ( 'NONE',  ( 6.982962677686235156E-16, -3.500000000000000000, 0.1999999999999990952 ) ) ;
#175 = EDGE_CURVE ( 'NONE', #171, #171, #170, .T. ) ;
#176 = CARTESIAN_POINT ( 'NONE',  ( 2.199633243471174140E-13, -7.715274834628325378E-15, 63.00000000000000000 ) ) ;
#177 = ORIENTED_EDGE ( 'NONE', *, *, #128, .T. ) ;
#178 = CALENDAR_DATE ( 2021, 1, 11 ) ;
#179 = CIRCLE ( 'NONE', #97, 3.499999999999997780 ) ;
#180 = PERSON_AND_ORGANIZATION_ROLE ( 'creator' ) ;
#181 = DATE_AND_TIME ( #27, #95 ) ;
#182 = APPLICATION_PROTOCOL_DEFINITION ( 'international standard', 'config_control_design', 1994, #196 ) ;
#183 = LOCAL_TIME ( 13, 23, 36.00000000000000000, #13 ) ;
#184 = CC_DESIGN_PERSON_AND_ORGANIZATION_ASSIGNMENT ( #108, #130, ( #59 ) ) ;
#185 = FACE_OUTER_BOUND ( 'NONE', #107, .T. ) ;
#186 = AXIS2_PLACEMENT_3D ( 'NONE', #63, #64, #126 ) ;
#187 = FACE_OUTER_BOUND ( 'NONE', #78, .T. ) ;
#188 = CARTESIAN_POINT ( 'NONE',  ( -1.413339467295508710E-30, 2.305574682352864863E-32, -4.047965118907965230E-16 ) ) ;
#189 = FACE_OUTER_BOUND ( 'NONE', #218, .T. ) ;
#190 =( LENGTH_UNIT ( ) NAMED_UNIT ( * ) SI_UNIT ( .MILLI., .METRE. ) );
#191 = ADVANCED_BREP_SHAPE_REPRESENTATION ( '57217', ( #47, #207, #138 ), #173 ) ;
#192 =( NAMED_UNIT ( * ) PLANE_ANGLE_UNIT ( ) SI_UNIT ( $, .RADIAN. ) );
#193 = APPROVAL_PERSON_ORGANIZATION ( #219, #56, #50 ) ;
#194 = DIRECTION ( 'NONE',  ( -3.491481338843133355E-15, 1.224646799147353207E-16, -1.000000000000000000 ) ) ;
#195 = DATE_TIME_ROLE ( 'creation_date' ) ;
#196 = APPLICATION_CONTEXT ( 'configuration controlled 3d designs of mechanical parts and assemblies' ) ;
#197 = CIRCLE ( 'NONE', #104, 3.499999999999997780 ) ;
#198 = ORIENTED_EDGE ( 'NONE', *, *, #224, .F. ) ;
#199 = DATE_AND_TIME ( #93, #121 ) ;
#200 = EDGE_LOOP ( 'NONE', ( #6 ) ) ;
#201 = APPROVAL_STATUS ( 'not_yet_approved' ) ;
#202 = COORDINATED_UNIVERSAL_TIME_OFFSET ( 1, 0, .AHEAD. ) ;
#203 = ORGANIZATION ( 'UNSPECIFIED', 'UNSPECIFIED', '' ) ;
#204 = CARTESIAN_POINT ( 'NONE',  ( 5.510913009090914186E-14, -2.076449974346732108E-15, 15.78388218141500765 ) ) ;
#205 = CLOSED_SHELL ( 'NONE', ( #85, #43, #139, #119, #163 ) ) ;
#206 = CYLINDRICAL_SURFACE ( 'NONE', #237, 3.999999999999998224 ) ;
#207 = MANIFOLD_SOLID_BREP ( 'Corps-Déplacer/Copier1[2]', #74 ) ;
#208 = DIRECTION ( 'NONE',  ( 3.491481338843133355E-15, -1.227517819005651059E-16, 1.000000000000000000 ) ) ;
#209 = DIRECTION ( 'NONE',  ( 3.491481338843133355E-15, -1.227517819005651059E-16, 1.000000000000000000 ) ) ;
#210 = DIRECTION ( 'NONE',  ( -4.340327956931570986E-31, -1.000000000000000000, -1.227517819005651059E-16 ) ) ;
#211 = APPROVAL_PERSON_ORGANIZATION ( #112, #213, #32 ) ;
#212 = PLANE ( 'NONE',  #186 ) ;
#213 = APPROVAL ( #201, 'UNSPECIFIED' ) ;
#214 = CARTESIAN_POINT ( 'NONE',  ( 5.510913009090914186E-14, 3.999999999999996447, 15.78388218141500765 ) ) ;
#215 = DIRECTION ( 'NONE',  ( 3.491481338843133355E-15, -1.227517819005651059E-16, 1.000000000000000000 ) ) ;
#216 = ORIENTED_EDGE ( 'NONE', *, *, #65, .T. ) ;
#217 = APPROVAL_ROLE ( '' ) ;
#218 = EDGE_LOOP ( 'NONE', ( #239 ) ) ;
#219 = PERSON_AND_ORGANIZATION ( #36, #203 ) ;
#220 = ORIENTED_EDGE ( 'NONE', *, *, #65, .F. ) ;
#221 = DATE_AND_TIME ( #53, #133 ) ;
#222 = CIRCLE ( 'NONE', #9, 3.500000000000000444 ) ;
#223 = MECHANICAL_CONTEXT ( 'NONE', #46, 'mechanical' ) ;
#224 = EDGE_CURVE ( 'NONE', #159, #159, #222, .T. ) ;
#225 = COORDINATED_UNIVERSAL_TIME_OFFSET ( 1, 0, .AHEAD. ) ;
#226 = FACE_OUTER_BOUND ( 'NONE', #242, .T. ) ;
#227 = DIRECTION ( 'NONE',  ( -4.282846870592448247E-31, -1.000000000000000000, -1.226656096638776648E-16 ) ) ;
#228 = SECURITY_CLASSIFICATION ( '', '', #162 ) ;
#229 = DIRECTION ( 'NONE',  ( -3.491481338843133355E-15, 1.224646799147353207E-16, -1.000000000000000000 ) ) ;
#230 = CC_DESIGN_PERSON_AND_ORGANIZATION_ASSIGNMENT ( #161, #1, ( #228 ) ) ;
#231 = DIRECTION ( 'NONE',  ( 3.491481338843133355E-15, -1.227517819005651059E-16, 1.000000000000000000 ) ) ;
#232 = PLANE ( 'NONE',  #234 ) ;
#233 = CARTESIAN_POINT ( 'NONE',  ( 2.199633243471174140E-13, 3.499999999999992895, 63.00000000000000000 ) ) ;
#234 = AXIS2_PLACEMENT_3D ( 'NONE', #123, #10, #103 ) ;
#235 = CARTESIAN_POINT ( 'NONE',  ( 4.538925740496073362E-14, 2.999519565323708647E-32, 13.00000000000000000 ) ) ;
#236 = CARTESIAN_POINT ( 'NONE',  ( 4.538925740496072731E-14, -1.734723475976807094E-15, 12.99999999999999822 ) ) ;
#237 = AXIS2_PLACEMENT_3D ( 'NONE', #57, #167, #168 ) ;
#238 = PRODUCT_RELATED_PRODUCT_CATEGORY ( 'detail', '', ( #51 ) ) ;
#239 = ORIENTED_EDGE ( 'NONE', *, *, #18, .F. ) ;
#240 = CARTESIAN_POINT ( 'NONE',  ( 0.0000000000000000000, 0.0000000000000000000, 0.0000000000000000000 ) ) ;
#241 = COORDINATED_UNIVERSAL_TIME_OFFSET ( 1, 0, .AHEAD. ) ;
#242 = EDGE_LOOP ( 'NONE', ( #49 ) ) ;
#243 = APPROVAL_STATUS ( 'not_yet_approved' ) ;
ENDSEC;
END-ISO-10303-21;
