ISO-10303-21;
HEADER;
FILE_DESCRIPTION (( 'STEP AP203' ),
    '1' );
FILE_NAME ('57214.step',
    '2021-11-01T12:23:35',
    ( '' ),
    ( '' ),
    'SwSTEP 2.0',
    'SolidWorks 2019',
    '' );
FILE_SCHEMA (( 'CONFIG_CONTROL_DESIGN' ));
ENDSEC;

DATA;
#1 = CARTESIAN_POINT ( 'NONE',  ( -6.413633676021355712E-31, 2.249599866068799511E-32, -1.836937693084290584E-16 ) ) ;
#2 = MANIFOLD_SOLID_BREP ( 'Corps-Déplacer/Copier1[2]', #197 ) ;
#3 = PLANE ( 'NONE',  #185 ) ;
#4 = AXIS2_PLACEMENT_3D ( 'NONE', #31, #79, #86 ) ;
#5 = PERSON_AND_ORGANIZATION ( #160, #58 ) ;
#6 = CC_DESIGN_DATE_AND_TIME_ASSIGNMENT ( #191, #54, ( #11 ) ) ;
#7 = APPROVAL_ROLE ( '' ) ;
#8 = APPROVAL_PERSON_ORGANIZATION ( #178, #78, #7 ) ;
#9 = CALENDAR_DATE ( 2021, 1, 11 ) ;
#10 = CIRCLE ( 'NONE', #53, 2.999999999999995559 ) ;
#11 = SECURITY_CLASSIFICATION ( '', '', #92 ) ;
#12 = EDGE_LOOP ( 'NONE', ( #73 ) ) ;
#13 = COORDINATED_UNIVERSAL_TIME_OFFSET ( 1, 0, .AHEAD. ) ;
#14 = DIRECTION ( 'NONE',  ( -3.491481338843133355E-15, 1.224646799147353207E-16, -1.000000000000000000 ) ) ;
#15 = CARTESIAN_POINT ( 'NONE',  ( 3.491481338843133355E-14, 2.249639673992782306E-32, 10.00000000000000000 ) ) ;
#16 = FACE_OUTER_BOUND ( 'NONE', #151, .T. ) ;
#17 = AXIS2_PLACEMENT_3D ( 'NONE', #152, #77, #135 ) ;
#18 = LOCAL_TIME ( 13, 23, 35.00000000000000000, #56 ) ;
#19 = VERTEX_POINT ( 'NONE', #80 ) ;
#20 = EDGE_CURVE ( 'NONE', #203, #203, #71, .T. ) ;
#21 = DIRECTION ( 'NONE',  ( -3.491481338843133355E-15, 1.224646799147353207E-16, -1.000000000000000000 ) ) ;
#22 = COORDINATED_UNIVERSAL_TIME_OFFSET ( 1, 0, .AHEAD. ) ;
#23 = DIRECTION ( 'NONE',  ( 1.000000000000000000, 0.0000000000000000000, 0.0000000000000000000 ) ) ;
#24 = CALENDAR_DATE ( 2021, 1, 11 ) ;
#25 = DATE_AND_TIME ( #105, #147 ) ;
#26 = AXIS2_PLACEMENT_3D ( 'NONE', #15, #62, #189 ) ;
#27 = ORIENTED_EDGE ( 'NONE', *, *, #20, .T. ) ;
#28 = EDGE_LOOP ( 'NONE', ( #27 ) ) ;
#29 = DIRECTION ( 'NONE',  ( -3.491481338843133355E-15, 1.224646799147353207E-16, -1.000000000000000000 ) ) ;
#30 = UNCERTAINTY_MEASURE_WITH_UNIT (LENGTH_MEASURE( 1.000000000000000082E-05 ), #107, 'distance_accuracy_value', 'NONE');
#31 = CARTESIAN_POINT ( 'NONE',  ( 3.491481338843133355E-14, 2.249639673992782306E-32, 10.00000000000000000 ) ) ;
#32 = DIRECTION ( 'NONE',  ( -3.491481338843133355E-15, 1.224646799147353207E-16, -1.000000000000000000 ) ) ;
#33 = APPROVAL_PERSON_ORGANIZATION ( #51, #75, #108 ) ;
#34 = VERTEX_POINT ( 'NONE', #155 ) ;
#35 =( NAMED_UNIT ( * ) PLANE_ANGLE_UNIT ( ) SI_UNIT ( $, .RADIAN. ) );
#36 = ADVANCED_FACE ( 'NONE', ( #100 ), #138, .T. ) ;
#37 = CC_DESIGN_SECURITY_CLASSIFICATION ( #11, ( #43 ) ) ;
#38 = PERSON_AND_ORGANIZATION ( #160, #58 ) ;
#39 = DATE_TIME_ROLE ( 'creation_date' ) ;
#40 = APPROVAL_STATUS ( 'not_yet_approved' ) ;
#41 = CC_DESIGN_PERSON_AND_ORGANIZATION_ASSIGNMENT ( #5, #109, ( #43 ) ) ;
#42 = ORIENTED_EDGE ( 'NONE', *, *, #68, .F. ) ;
#43 = PRODUCT_DEFINITION_FORMATION_WITH_SPECIFIED_SOURCE ( 'ANY', '', #69, .NOT_KNOWN. ) ;
#44 = EDGE_LOOP ( 'NONE', ( #183 ) ) ;
#45 = FACE_BOUND ( 'NONE', #28, .T. ) ;
#46 = LOCAL_TIME ( 13, 23, 35.00000000000000000, #158 ) ;
#47 = DIRECTION ( 'NONE',  ( 4.275831445896958607E-31, 1.000000000000000000, 1.224646799147353207E-16 ) ) ;
#48 = VERTEX_POINT ( 'NONE', #101 ) ;
#49 = DIRECTION ( 'NONE',  ( 0.0000000000000000000, 1.000000000000000000, 0.0000000000000000000 ) ) ;
#50 = CARTESIAN_POINT ( 'NONE',  ( 0.0000000000000000000, 0.0000000000000000000, 0.0000000000000000000 ) ) ;
#51 = PERSON_AND_ORGANIZATION ( #160, #58 ) ;
#52 = PERSON_AND_ORGANIZATION ( #160, #58 ) ;
#53 = AXIS2_PLACEMENT_3D ( 'NONE', #1, #29, #85 ) ;
#54 = DATE_TIME_ROLE ( 'classification_date' ) ;
#55 = CC_DESIGN_PERSON_AND_ORGANIZATION_ASSIGNMENT ( #143, #83, ( #43 ) ) ;
#56 = COORDINATED_UNIVERSAL_TIME_OFFSET ( 1, 0, .AHEAD. ) ;
#57 = DATE_AND_TIME ( #24, #18 ) ;
#58 = ORGANIZATION ( 'UNSPECIFIED', 'UNSPECIFIED', '' ) ;
#59 = CARTESIAN_POINT ( 'NONE',  ( 1.976178437785213605E-13, -6.931500883174019483E-15, 56.60000000000000142 ) ) ;
#60 = DIRECTION ( 'NONE',  ( -3.491481338843133355E-15, 1.224646799147353207E-16, -1.000000000000000000 ) ) ;
#61 = CYLINDRICAL_SURFACE ( 'NONE', #72, 3.000000000000000000 ) ;
#62 = DIRECTION ( 'NONE',  ( 3.491481338843133355E-15, -1.224646799147353207E-16, 1.000000000000000000 ) ) ;
#63 = CARTESIAN_POINT ( 'NONE',  ( 3.491481338843133355E-14, -1.224646799147353256E-15, 10.00000000000000000 ) ) ;
#64 = PERSON_AND_ORGANIZATION ( #160, #58 ) ;
#65 = AXIS2_PLACEMENT_3D ( 'NONE', #118, #88, #102 ) ;
#66 = APPLICATION_PROTOCOL_DEFINITION ( 'international standard', 'config_control_design', 1994, #90 ) ;
#67 = COORDINATED_UNIVERSAL_TIME_OFFSET ( 1, 0, .AHEAD. ) ;
#68 = EDGE_CURVE ( 'NONE', #171, #171, #136, .T. ) ;
#69 = PRODUCT ( '57214', '57214', '', ( #176 ) ) ;
#70 = EDGE_LOOP ( 'NONE', ( #149 ) ) ;
#71 = CIRCLE ( 'NONE', #173, 2.600000000000002309 ) ;
#72 = AXIS2_PLACEMENT_3D ( 'NONE', #50, #81, #87 ) ;
#73 = ORIENTED_EDGE ( 'NONE', *, *, #111, .F. ) ;
#74 = CARTESIAN_POINT ( 'NONE',  ( 1.990144363140586139E-13, -6.980486755139912911E-15, 57.00000000000000000 ) ) ;
#75 = APPROVAL ( #193, 'UNSPECIFIED' ) ;
#76 = PLANE ( 'NONE',  #65 ) ;
#77 = DIRECTION ( 'NONE',  ( -3.491481338843133355E-15, 1.224646799147353207E-16, -1.000000000000000000 ) ) ;
#78 = APPROVAL ( #40, 'UNSPECIFIED' ) ;
#79 = DIRECTION ( 'NONE',  ( 3.491481338843133355E-15, -1.224646799147353207E-16, 1.000000000000000000 ) ) ;
#80 = CARTESIAN_POINT ( 'NONE',  ( 1.976178437785213605E-13, 2.999999999999995559, 56.60000000000000142 ) ) ;
#81 = DIRECTION ( 'NONE',  ( -3.491481338843133355E-15, 1.224646799147353207E-16, -1.000000000000000000 ) ) ;
#82 = PERSON_AND_ORGANIZATION_ROLE ( 'creator' ) ;
#83 = PERSON_AND_ORGANIZATION_ROLE ( 'design_supplier' ) ;
#84 = ADVANCED_FACE ( 'NONE', ( #137 ), #3, .F. ) ;
#85 = DIRECTION ( 'NONE',  ( 4.275831445896959482E-31, 1.000000000000000000, 1.224646799147353207E-16 ) ) ;
#86 = DIRECTION ( 'NONE',  ( -4.275831445896958607E-31, -1.000000000000000000, -1.224646799147353207E-16 ) ) ;
#87 = DIRECTION ( 'NONE',  ( 4.275831445896959482E-31, 1.000000000000000000, 1.224646799147353207E-16 ) ) ;
#88 = DIRECTION ( 'NONE',  ( 3.491481338843133355E-15, -1.224646799147353207E-16, 1.000000000000000000 ) ) ;
#89 = DIRECTION ( 'NONE',  ( 0.0000000000000000000, 1.000000000000000000, 0.0000000000000000000 ) ) ;
#90 = APPLICATION_CONTEXT ( 'configuration controlled 3d designs of mechanical parts and assemblies' ) ;
#91 = CC_DESIGN_APPROVAL ( #94, ( #43 ) ) ;
#92 = SECURITY_CLASSIFICATION_LEVEL ( 'unclassified' ) ;
#93 = APPROVAL_ROLE ( '' ) ;
#94 = APPROVAL ( #156, 'UNSPECIFIED' ) ;
#95 = AXIS2_PLACEMENT_3D ( 'NONE', #140, #119, #23 ) ;
#96 = EDGE_LOOP ( 'NONE', ( #181 ) ) ;
#97 = EDGE_LOOP ( 'NONE', ( #196 ) ) ;
#98 = FACE_OUTER_BOUND ( 'NONE', #199, .T. ) ;
#99 =( GEOMETRIC_REPRESENTATION_CONTEXT ( 3 ) GLOBAL_UNCERTAINTY_ASSIGNED_CONTEXT ( ( #30 ) ) GLOBAL_UNIT_ASSIGNED_CONTEXT ( ( #107, #35, #126 ) ) REPRESENTATION_CONTEXT ( 'NONE', 'WORKASPACE' ) );
#100 = FACE_OUTER_BOUND ( 'NONE', #127, .T. ) ;
#101 = CARTESIAN_POINT ( 'NONE',  ( 6.413860661669502591E-31, 2.999999999999995559, 1.837002704357763860E-16 ) ) ;
#102 = DIRECTION ( 'NONE',  ( -4.275831445896958607E-31, -1.000000000000000000, -1.224646799147353207E-16 ) ) ;
#103 = CARTESIAN_POINT ( 'NONE',  ( 1.990144363140586139E-13, 2.599999999999995648, 57.00000000000000000 ) ) ;
#104 = ADVANCED_BREP_SHAPE_REPRESENTATION ( '57214', ( #133, #2, #95 ), #99 ) ;
#105 = CALENDAR_DATE ( 2021, 1, 11 ) ;
#106 = PRODUCT_DEFINITION ( 'UNKNOWN', '', #43, #132 ) ;
#107 =( LENGTH_UNIT ( ) NAMED_UNIT ( * ) SI_UNIT ( .MILLI., .METRE. ) );
#108 = APPROVAL_ROLE ( '' ) ;
#109 = PERSON_AND_ORGANIZATION_ROLE ( 'creator' ) ;
#110 = LOCAL_TIME ( 13, 23, 35.00000000000000000, #13 ) ;
#111 = EDGE_CURVE ( 'NONE', #48, #48, #10, .T. ) ;
#112 = DATE_AND_TIME ( #129, #110 ) ;
#113 = CARTESIAN_POINT ( 'NONE',  ( 1.990144363140586139E-13, 1.949687717460406406E-32, 57.00000000000000000 ) ) ;
#114 = CC_DESIGN_APPROVAL ( #78, ( #11 ) ) ;
#115 = DIRECTION ( 'NONE',  ( 0.0000000000000000000, 1.000000000000000000, 0.0000000000000000000 ) ) ;
#116 = CARTESIAN_POINT ( 'NONE',  ( 3.491481338843133355E-14, 2.999999999999995559, 10.00000000000000000 ) ) ;
#117 = DIRECTION ( 'NONE',  ( 0.0000000000000000000, 1.000000000000000000, 0.0000000000000000000 ) ) ;
#118 = CARTESIAN_POINT ( 'NONE',  ( -3.206816838010677856E-31, 1.124799933034399755E-32, -9.184688465421452921E-17 ) ) ;
#119 = DIRECTION ( 'NONE',  ( 0.0000000000000000000, 0.0000000000000000000, 1.000000000000000000 ) ) ;
#120 = CC_DESIGN_PERSON_AND_ORGANIZATION_ASSIGNMENT ( #64, #144, ( #11 ) ) ;
#121 = PERSON_AND_ORGANIZATION ( #160, #58 ) ;
#122 = CIRCLE ( 'NONE', #198, 2.999999999999996891 ) ;
#123 = CC_DESIGN_APPROVAL ( #75, ( #106 ) ) ;
#124 = DATE_AND_TIME ( #194, #46 ) ;
#125 = ADVANCED_FACE ( 'NONE', ( #153, #98 ), #184, .T. ) ;
#126 =( NAMED_UNIT ( * ) SI_UNIT ( $, .STERADIAN. ) SOLID_ANGLE_UNIT ( ) );
#127 = EDGE_LOOP ( 'NONE', ( #42 ) ) ;
#128 = CLOSED_SHELL ( 'NONE', ( #195, #201, #139, #84 ) ) ;
#129 = CALENDAR_DATE ( 2021, 1, 11 ) ;
#130 = ORIENTED_EDGE ( 'NONE', *, *, #172, .T. ) ;
#131 = ORIENTED_EDGE ( 'NONE', *, *, #172, .F. ) ;
#132 = DESIGN_CONTEXT ( 'detailed design', #90, 'design' ) ;
#133 = MANIFOLD_SOLID_BREP ( 'Corps-Déplacer/Copier1[1]', #128 ) ;
#134 = DIRECTION ( 'NONE',  ( -3.491481338843133355E-15, 1.224646799147353207E-16, -1.000000000000000000 ) ) ;
#135 = DIRECTION ( 'NONE',  ( 4.275831445896958607E-31, 1.000000000000000000, 1.224646799147353207E-16 ) ) ;
#136 = CIRCLE ( 'NONE', #157, 2.999999999999996891 ) ;
#137 = FACE_OUTER_BOUND ( 'NONE', #97, .T. ) ;
#138 = PLANE ( 'NONE',  #26 ) ;
#139 = ADVANCED_FACE ( 'NONE', ( #188, #45 ), #154, .T. ) ;
#140 = CARTESIAN_POINT ( 'NONE',  ( 0.0000000000000000000, 0.0000000000000000000, 0.0000000000000000000 ) ) ;
#141 = CC_DESIGN_PERSON_AND_ORGANIZATION_ASSIGNMENT ( #121, #82, ( #106 ) ) ;
#142 = APPROVAL_DATE_TIME ( #57, #75 ) ;
#143 = PERSON_AND_ORGANIZATION ( #160, #58 ) ;
#144 = PERSON_AND_ORGANIZATION_ROLE ( 'classification_officer' ) ;
#145 = SHAPE_DEFINITION_REPRESENTATION ( #179, #104 ) ;
#146 = APPROVAL_DATE_TIME ( #112, #78 ) ;
#147 = LOCAL_TIME ( 13, 23, 35.00000000000000000, #22 ) ;
#148 = CC_DESIGN_PERSON_AND_ORGANIZATION_ASSIGNMENT ( #38, #159, ( #69 ) ) ;
#149 = ORIENTED_EDGE ( 'NONE', *, *, #182, .T. ) ;
#150 = CC_DESIGN_DATE_AND_TIME_ASSIGNMENT ( #124, #39, ( #106 ) ) ;
#151 = EDGE_LOOP ( 'NONE', ( #131 ) ) ;
#152 = CARTESIAN_POINT ( 'NONE',  ( 0.0000000000000000000, 0.0000000000000000000, 0.0000000000000000000 ) ) ;
#153 = FACE_OUTER_BOUND ( 'NONE', #12, .T. ) ;
#154 = CONICAL_SURFACE ( 'NONE', #192, 2.600000000000002309, 0.7853981633974516097 ) ;
#155 = CARTESIAN_POINT ( 'NONE',  ( 3.491481338843133355E-14, 2.999999999999995559, 10.00000000000000000 ) ) ;
#156 = APPROVAL_STATUS ( 'not_yet_approved' ) ;
#157 = AXIS2_PLACEMENT_3D ( 'NONE', #63, #14, #89 ) ;
#158 = COORDINATED_UNIVERSAL_TIME_OFFSET ( 1, 0, .AHEAD. ) ;
#159 = PERSON_AND_ORGANIZATION_ROLE ( 'design_owner' ) ;
#160 = PERSON ( 'UNSPECIFIED', 'UNSPECIFIED', 'UNSPECIFIED', ('UNSPECIFIED'), ('UNSPECIFIED'), ('UNSPECIFIED') ) ;
#161 = AXIS2_PLACEMENT_3D ( 'NONE', #59, #60, #115 ) ;
#162 = APPLICATION_CONTEXT ( 'configuration controlled 3d designs of mechanical parts and assemblies' ) ;
#163 = ORIENTED_EDGE ( 'NONE', *, *, #68, .T. ) ;
#164 = EDGE_LOOP ( 'NONE', ( #130 ) ) ;
#165 = CIRCLE ( 'NONE', #161, 3.000000000000002665 ) ;
#166 = FACE_OUTER_BOUND ( 'NONE', #96, .T. ) ;
#167 = PLANE ( 'NONE',  #4 ) ;
#168 = PRODUCT_RELATED_PRODUCT_CATEGORY ( 'detail', '', ( #69 ) ) ;
#169 = DIRECTION ( 'NONE',  ( -3.491481338843133355E-15, 1.224646799147353207E-16, -1.000000000000000000 ) ) ;
#170 = FACE_OUTER_BOUND ( 'NONE', #70, .T. ) ;
#171 = VERTEX_POINT ( 'NONE', #116 ) ;
#172 = EDGE_CURVE ( 'NONE', #34, #34, #122, .T. ) ;
#173 = AXIS2_PLACEMENT_3D ( 'NONE', #74, #169, #117 ) ;
#174 = APPROVAL_DATE_TIME ( #25, #94 ) ;
#175 = LOCAL_TIME ( 13, 23, 35.00000000000000000, #67 ) ;
#176 = MECHANICAL_CONTEXT ( 'NONE', #162, 'mechanical' ) ;
#177 = APPLICATION_PROTOCOL_DEFINITION ( 'international standard', 'config_control_design', 1994, #162 ) ;
#178 = PERSON_AND_ORGANIZATION ( #160, #58 ) ;
#179 = PRODUCT_DEFINITION_SHAPE ( 'NONE', 'NONE',  #106 ) ;
#180 = ADVANCED_FACE ( 'NONE', ( #166 ), #76, .F. ) ;
#181 = ORIENTED_EDGE ( 'NONE', *, *, #111, .T. ) ;
#182 = EDGE_CURVE ( 'NONE', #19, #19, #165, .T. ) ;
#183 = ORIENTED_EDGE ( 'NONE', *, *, #182, .F. ) ;
#184 = CYLINDRICAL_SURFACE ( 'NONE', #17, 2.999999999999996447 ) ;
#185 = AXIS2_PLACEMENT_3D ( 'NONE', #113, #134, #47 ) ;
#186 = APPROVAL_PERSON_ORGANIZATION ( #52, #94, #93 ) ;
#187 = FACE_OUTER_BOUND ( 'NONE', #164, .T. ) ;
#188 = FACE_OUTER_BOUND ( 'NONE', #44, .T. ) ;
#189 = DIRECTION ( 'NONE',  ( -4.275831445896958607E-31, -1.000000000000000000, -1.224646799147353207E-16 ) ) ;
#190 = DIRECTION ( 'NONE',  ( 0.0000000000000000000, 1.000000000000000000, 0.0000000000000000000 ) ) ;
#191 = DATE_AND_TIME ( #9, #175 ) ;
#192 = AXIS2_PLACEMENT_3D ( 'NONE', #202, #32, #49 ) ;
#193 = APPROVAL_STATUS ( 'not_yet_approved' ) ;
#194 = CALENDAR_DATE ( 2021, 1, 11 ) ;
#195 = ADVANCED_FACE ( 'NONE', ( #187 ), #167, .F. ) ;
#196 = ORIENTED_EDGE ( 'NONE', *, *, #20, .F. ) ;
#197 = CLOSED_SHELL ( 'NONE', ( #180, #125, #36 ) ) ;
#198 = AXIS2_PLACEMENT_3D ( 'NONE', #200, #21, #190 ) ;
#199 = EDGE_LOOP ( 'NONE', ( #163 ) ) ;
#200 = CARTESIAN_POINT ( 'NONE',  ( 3.491481338843133355E-14, -1.224646799147353256E-15, 10.00000000000000000 ) ) ;
#201 = ADVANCED_FACE ( 'NONE', ( #16, #170 ), #61, .T. ) ;
#202 = CARTESIAN_POINT ( 'NONE',  ( 1.990144363140586139E-13, -6.980486755139912911E-15, 57.00000000000000000 ) ) ;
#203 = VERTEX_POINT ( 'NONE', #103 ) ;
ENDSEC;
END-ISO-10303-21;
