ISO-10303-21;
HEADER;
FILE_DESCRIPTION (( 'STEP AP203' ),
    '1' );
FILE_NAME ('57211.step',
    '2021-11-01T12:23:34',
    ( '' ),
    ( '' ),
    'SwSTEP 2.0',
    'SolidWorks 2019',
    '' );
FILE_SCHEMA (( 'CONFIG_CONTROL_DESIGN' ));
ENDSEC;

DATA;
#1 = DIRECTION ( 'NONE',  ( 3.491481338843133355E-15, -1.224646799147353207E-16, 1.000000000000000000 ) ) ;
#2 = CARTESIAN_POINT ( 'NONE',  ( 2.793185071074506684E-14, 2.249639673992782580E-32, 8.000000000000000000 ) ) ;
#3 = CC_DESIGN_APPROVAL ( #64, ( #187 ) ) ;
#4 = CALENDAR_DATE ( 2021, 1, 11 ) ;
#5 = APPROVAL_DATE_TIME ( #133, #140 ) ;
#6 = APPROVAL_STATUS ( 'not_yet_approved' ) ;
#7 = PERSON_AND_ORGANIZATION ( #214, #114 ) ;
#8 = AXIS2_PLACEMENT_3D ( 'NONE', #31, #100, #116 ) ;
#9 = COORDINATED_UNIVERSAL_TIME_OFFSET ( 1, 0, .AHEAD. ) ;
#10 = PRODUCT ( '57211', '57211', '', ( #162 ) ) ;
#11 = DIRECTION ( 'NONE',  ( 0.0000000000000000000, 1.000000000000000000, 0.0000000000000000000 ) ) ;
#12 = PLANE ( 'NONE',  #8 ) ;
#13 = ORIENTED_EDGE ( 'NONE', *, *, #89, .T. ) ;
#14 = DIRECTION ( 'NONE',  ( -3.491481338843133355E-15, 1.224646799147353207E-16, -1.000000000000000000 ) ) ;
#15 = LOCAL_TIME ( 13, 23, 34.00000000000000000, #9 ) ;
#16 = EDGE_CURVE ( 'NONE', #190, #190, #70, .T. ) ;
#17 = CARTESIAN_POINT ( 'NONE',  ( 1.976178437785213605E-13, 2.999999999999995559, 56.60000000000000142 ) ) ;
#18 = FACE_OUTER_BOUND ( 'NONE', #201, .T. ) ;
#19 = PLANE ( 'NONE',  #189 ) ;
#20 = AXIS2_PLACEMENT_3D ( 'NONE', #98, #164, #11 ) ;
#21 = CARTESIAN_POINT ( 'NONE',  ( 2.793185071074506053E-14, -1.734723475976807094E-15, 7.999999999999998224 ) ) ;
#22 = FACE_OUTER_BOUND ( 'NONE', #51, .T. ) ;
#23 = DIRECTION ( 'NONE',  ( 1.000000000000000000, 0.0000000000000000000, 0.0000000000000000000 ) ) ;
#24 = ADVANCED_FACE ( 'NONE', ( #29, #199 ), #151, .T. ) ;
#25 = APPROVAL_ROLE ( '' ) ;
#26 = COORDINATED_UNIVERSAL_TIME_OFFSET ( 1, 0, .AHEAD. ) ;
#27 = PERSON_AND_ORGANIZATION ( #214, #114 ) ;
#28 = EDGE_CURVE ( 'NONE', #167, #167, #143, .T. ) ;
#29 = FACE_OUTER_BOUND ( 'NONE', #67, .T. ) ;
#30 = EDGE_LOOP ( 'NONE', ( #217 ) ) ;
#31 = CARTESIAN_POINT ( 'NONE',  ( 1.990144363140586139E-13, 1.949687717460406406E-32, 57.00000000000000000 ) ) ;
#32 = EDGE_LOOP ( 'NONE', ( #202 ) ) ;
#33 = DIRECTION ( 'NONE',  ( 0.0000000000000000000, 1.000000000000000000, 0.0000000000000000000 ) ) ;
#34 = CIRCLE ( 'NONE', #180, 2.999999999999999556 ) ;
#35 = DIRECTION ( 'NONE',  ( -4.344058943149099284E-31, -1.000000000000000000, -1.227517819005651059E-16 ) ) ;
#36 = DIRECTION ( 'NONE',  ( -3.491481338843133355E-15, 1.224646799147353207E-16, -1.000000000000000000 ) ) ;
#37 = APPROVAL ( #175, 'UNSPECIFIED' ) ;
#38 = DIRECTION ( 'NONE',  ( -4.275831445896958607E-31, -1.000000000000000000, -1.224646799147353207E-16 ) ) ;
#39 = LOCAL_TIME ( 13, 23, 34.00000000000000000, #77 ) ;
#40 = EDGE_CURVE ( 'NONE', #157, #157, #34, .T. ) ;
#41 = CARTESIAN_POINT ( 'NONE',  ( 3.973982173386815915E-14, 2.999999999999997335, 11.38193731461716496 ) ) ;
#42 = CC_DESIGN_PERSON_AND_ORGANIZATION_ASSIGNMENT ( #7, #173, ( #10 ) ) ;
#43 =( GEOMETRIC_REPRESENTATION_CONTEXT ( 3 ) GLOBAL_UNCERTAINTY_ASSIGNED_CONTEXT ( ( #52 ) ) GLOBAL_UNIT_ASSIGNED_CONTEXT ( ( #155, #53, #85 ) ) REPRESENTATION_CONTEXT ( 'NONE', 'WORKASPACE' ) );
#44 = PERSON_AND_ORGANIZATION ( #214, #114 ) ;
#45 = APPROVAL_DATE_TIME ( #129, #64 ) ;
#46 = ADVANCED_BREP_SHAPE_REPRESENTATION ( '57211', ( #141, #220, #90 ), #43 ) ;
#47 = EDGE_LOOP ( 'NONE', ( #80 ) ) ;
#48 = DIRECTION ( 'NONE',  ( 0.0000000000000000000, -1.000000000000000000, 0.0000000000000000000 ) ) ;
#49 = CIRCLE ( 'NONE', #177, 2.600000000000002309 ) ;
#50 = DIRECTION ( 'NONE',  ( -4.285855558155654155E-31, -1.000000000000000000, -1.227517819005651305E-16 ) ) ;
#51 = EDGE_LOOP ( 'NONE', ( #198 ) ) ;
#52 = UNCERTAINTY_MEASURE_WITH_UNIT (LENGTH_MEASURE( 1.000000000000000082E-05 ), #155, 'distance_accuracy_value', 'NONE');
#53 =( NAMED_UNIT ( * ) PLANE_ANGLE_UNIT ( ) SI_UNIT ( $, .RADIAN. ) );
#54 = CARTESIAN_POINT ( 'NONE',  ( -1.928635001170043275E-30, -2.249999999999998668, -5.523830185525427545E-16 ) ) ;
#55 = FACE_OUTER_BOUND ( 'NONE', #30, .T. ) ;
#56 = PLANE ( 'NONE',  #170 ) ;
#57 = CIRCLE ( 'NONE', #20, 3.000000000000002665 ) ;
#58 = DIRECTION ( 'NONE',  ( 0.0000000000000000000, 1.000000000000000000, 0.0000000000000000000 ) ) ;
#59 = APPROVAL_STATUS ( 'not_yet_approved' ) ;
#60 = CALENDAR_DATE ( 2021, 1, 11 ) ;
#61 = CALENDAR_DATE ( 2021, 1, 11 ) ;
#62 = COORDINATED_UNIVERSAL_TIME_OFFSET ( 1, 0, .AHEAD. ) ;
#63 = APPLICATION_PROTOCOL_DEFINITION ( 'international standard', 'config_control_design', 1994, #200 ) ;
#64 = APPROVAL ( #59, 'UNSPECIFIED' ) ;
#65 = TOROIDAL_SURFACE ( 'NONE', #168, 10.25000000000000000, 8.000000000000000000 ) ;
#66 = ORIENTED_EDGE ( 'NONE', *, *, #152, .F. ) ;
#67 = EDGE_LOOP ( 'NONE', ( #13 ) ) ;
#68 = VERTEX_POINT ( 'NONE', #137 ) ;
#69 = ADVANCED_FACE ( 'NONE', ( #197 ), #12, .F. ) ;
#70 = CIRCLE ( 'NONE', #78, 2.249999999999999556 ) ;
#71 = FACE_OUTER_BOUND ( 'NONE', #150, .T. ) ;
#72 = CARTESIAN_POINT ( 'NONE',  ( 1.990144363140586139E-13, -6.980486755139912911E-15, 57.00000000000000000 ) ) ;
#73 = CONICAL_SURFACE ( 'NONE', #144, 2.600000000000002309, 0.7853981633974516097 ) ;
#74 = AXIS2_PLACEMENT_3D ( 'NONE', #188, #88, #86 ) ;
#75 = APPLICATION_PROTOCOL_DEFINITION ( 'international standard', 'config_control_design', 1994, #212 ) ;
#76 = PERSON_AND_ORGANIZATION ( #214, #114 ) ;
#77 = COORDINATED_UNIVERSAL_TIME_OFFSET ( 1, 0, .AHEAD. ) ;
#78 = AXIS2_PLACEMENT_3D ( 'NONE', #179, #134, #48 ) ;
#79 = COORDINATED_UNIVERSAL_TIME_OFFSET ( 1, 0, .AHEAD. ) ;
#80 = ORIENTED_EDGE ( 'NONE', *, *, #89, .F. ) ;
#81 = EDGE_LOOP ( 'NONE', ( #182 ) ) ;
#82 = CARTESIAN_POINT ( 'NONE',  ( 3.973982173386815915E-14, -2.149862307622076787E-15, 11.38193731461716496 ) ) ;
#83 = EDGE_LOOP ( 'NONE', ( #218 ) ) ;
#84 = DIRECTION ( 'NONE',  ( 3.491481338843133355E-15, -1.227517819005651059E-16, 1.000000000000000000 ) ) ;
#85 =( NAMED_UNIT ( * ) SI_UNIT ( $, .STERADIAN. ) SOLID_ANGLE_UNIT ( ) );
#86 = DIRECTION ( 'NONE',  ( 0.0000000000000000000, -1.000000000000000000, 0.0000000000000000000 ) ) ;
#87 = CC_DESIGN_PERSON_AND_ORGANIZATION_ASSIGNMENT ( #44, #213, ( #222 ) ) ;
#88 = DIRECTION ( 'NONE',  ( 3.491481338843133355E-15, -1.227517819005651059E-16, 1.000000000000000000 ) ) ;
#89 = EDGE_CURVE ( 'NONE', #223, #223, #57, .T. ) ;
#90 = AXIS2_PLACEMENT_3D ( 'NONE', #194, #160, #23 ) ;
#91 = CC_DESIGN_DATE_AND_TIME_ASSIGNMENT ( #97, #111, ( #222 ) ) ;
#92 = APPROVAL_ROLE ( '' ) ;
#93 = CC_DESIGN_PERSON_AND_ORGANIZATION_ASSIGNMENT ( #172, #195, ( #158 ) ) ;
#94 = AXIS2_PLACEMENT_3D ( 'NONE', #107, #104, #221 ) ;
#95 = CLOSED_SHELL ( 'NONE', ( #24, #105, #69, #128, #171 ) ) ;
#96 = AXIS2_PLACEMENT_3D ( 'NONE', #204, #103, #153 ) ;
#97 = DATE_AND_TIME ( #132, #109 ) ;
#98 = CARTESIAN_POINT ( 'NONE',  ( 1.976178437785213605E-13, -6.931500883174019483E-15, 56.60000000000000142 ) ) ;
#99 = DIRECTION ( 'NONE',  ( 4.275831445896959482E-31, 1.000000000000000000, 1.224646799147353207E-16 ) ) ;
#100 = DIRECTION ( 'NONE',  ( -3.491481338843133355E-15, 1.224646799147353207E-16, -1.000000000000000000 ) ) ;
#101 = ORIENTED_EDGE ( 'NONE', *, *, #203, .T. ) ;
#102 = APPROVAL_PERSON_ORGANIZATION ( #210, #64, #145 ) ;
#103 = DIRECTION ( 'NONE',  ( 3.491481338843133355E-15, -1.227517819005651059E-16, 1.000000000000000000 ) ) ;
#104 = DIRECTION ( 'NONE',  ( 3.491481338843133355E-15, -1.224646799147353207E-16, 1.000000000000000000 ) ) ;
#105 = ADVANCED_FACE ( 'NONE', ( #149, #208 ), #73, .T. ) ;
#106 = AXIS2_PLACEMENT_3D ( 'NONE', #181, #14, #99 ) ;
#107 = CARTESIAN_POINT ( 'NONE',  ( -3.206816838010677856E-31, 1.124799933034399755E-32, -9.184688465421452921E-17 ) ) ;
#108 = CARTESIAN_POINT ( 'NONE',  ( 2.793185071074506684E-14, 2.249639673992782580E-32, 8.000000000000000000 ) ) ;
#109 = LOCAL_TIME ( 13, 23, 34.00000000000000000, #62 ) ;
#110 = CC_DESIGN_PERSON_AND_ORGANIZATION_ASSIGNMENT ( #176, #191, ( #187 ) ) ;
#111 = DATE_TIME_ROLE ( 'classification_date' ) ;
#112 = SHAPE_DEFINITION_REPRESENTATION ( #161, #46 ) ;
#113 = DATE_TIME_ROLE ( 'creation_date' ) ;
#114 = ORGANIZATION ( 'UNSPECIFIED', 'UNSPECIFIED', '' ) ;
#115 = PRODUCT_RELATED_PRODUCT_CATEGORY ( 'detail', '', ( #10 ) ) ;
#116 = DIRECTION ( 'NONE',  ( 4.275831445896958607E-31, 1.000000000000000000, 1.224646799147353207E-16 ) ) ;
#117 = ORIENTED_EDGE ( 'NONE', *, *, #28, .F. ) ;
#118 = CC_DESIGN_DATE_AND_TIME_ASSIGNMENT ( #211, #113, ( #158 ) ) ;
#119 = ADVANCED_FACE ( 'NONE', ( #207 ), #19, .T. ) ;
#120 = DIRECTION ( 'NONE',  ( -3.491481338843133355E-15, 1.227517819005651059E-16, -1.000000000000000000 ) ) ;
#121 = APPROVAL_PERSON_ORGANIZATION ( #27, #37, #92 ) ;
#122 = DIRECTION ( 'NONE',  ( 3.491481338843133355E-15, -1.227517819005651059E-16, 1.000000000000000000 ) ) ;
#123 = DIRECTION ( 'NONE',  ( 3.491481338843133355E-15, -1.224646799147353207E-16, 1.000000000000000000 ) ) ;
#124 = PLANE ( 'NONE',  #94 ) ;
#125 = CIRCLE ( 'NONE', #74, 2.249999999999999556 ) ;
#126 = DIRECTION ( 'NONE',  ( 0.0000000000000000000, 1.000000000000000000, 0.0000000000000000000 ) ) ;
#127 = CYLINDRICAL_SURFACE ( 'NONE', #96, 2.249999999999999112 ) ;
#128 = ADVANCED_FACE ( 'NONE', ( #22, #139 ), #65, .F. ) ;
#129 = DATE_AND_TIME ( #60, #15 ) ;
#130 = PERSON_AND_ORGANIZATION_ROLE ( 'design_supplier' ) ;
#131 = DATE_AND_TIME ( #61, #39 ) ;
#132 = CALENDAR_DATE ( 2021, 1, 11 ) ;
#133 = DATE_AND_TIME ( #142, #215 ) ;
#134 = DIRECTION ( 'NONE',  ( 3.491481338843133355E-15, -1.227517819005651059E-16, 1.000000000000000000 ) ) ;
#135 = EDGE_LOOP ( 'NONE', ( #101 ) ) ;
#136 = ORIENTED_EDGE ( 'NONE', *, *, #40, .T. ) ;
#137 = CARTESIAN_POINT ( 'NONE',  ( 1.990144363140586139E-13, 2.599999999999995648, 57.00000000000000000 ) ) ;
#138 = DIRECTION ( 'NONE',  ( -3.491481338843133355E-15, 1.224646799147353207E-16, -1.000000000000000000 ) ) ;
#139 = FACE_OUTER_BOUND ( 'NONE', #178, .T. ) ;
#140 = APPROVAL ( #6, 'UNSPECIFIED' ) ;
#141 = MANIFOLD_SOLID_BREP ( 'Corps-Déplacer/Copier1[1]', #95 ) ;
#142 = CALENDAR_DATE ( 2021, 1, 11 ) ;
#143 = CIRCLE ( 'NONE', #163, 2.249999999999998668 ) ;
#144 = AXIS2_PLACEMENT_3D ( 'NONE', #72, #138, #126 ) ;
#145 = APPROVAL_ROLE ( '' ) ;
#146 = PERSON_AND_ORGANIZATION ( #214, #114 ) ;
#147 = ORIENTED_EDGE ( 'NONE', *, *, #203, .F. ) ;
#148 = CC_DESIGN_SECURITY_CLASSIFICATION ( #222, ( #187 ) ) ;
#149 = FACE_OUTER_BOUND ( 'NONE', #47, .T. ) ;
#150 = EDGE_LOOP ( 'NONE', ( #117 ) ) ;
#151 = CYLINDRICAL_SURFACE ( 'NONE', #106, 2.999999999999999556 ) ;
#152 = EDGE_CURVE ( 'NONE', #68, #68, #49, .T. ) ;
#153 = DIRECTION ( 'NONE',  ( -4.285855558155653280E-31, -1.000000000000000000, -1.227517819005651059E-16 ) ) ;
#154 = VERTEX_POINT ( 'NONE', #184 ) ;
#155 =( LENGTH_UNIT ( ) NAMED_UNIT ( * ) SI_UNIT ( .MILLI., .METRE. ) );
#156 = ADVANCED_FACE ( 'NONE', ( #71 ), #124, .F. ) ;
#157 = VERTEX_POINT ( 'NONE', #41 ) ;
#158 = PRODUCT_DEFINITION ( 'UNKNOWN', '', #187, #205 ) ;
#159 = CC_DESIGN_APPROVAL ( #37, ( #222 ) ) ;
#160 = DIRECTION ( 'NONE',  ( 0.0000000000000000000, 0.0000000000000000000, 1.000000000000000000 ) ) ;
#161 = PRODUCT_DEFINITION_SHAPE ( 'NONE', 'NONE',  #158 ) ;
#162 = MECHANICAL_CONTEXT ( 'NONE', #200, 'mechanical' ) ;
#163 = AXIS2_PLACEMENT_3D ( 'NONE', #219, #84, #50 ) ;
#164 = DIRECTION ( 'NONE',  ( -3.491481338843133355E-15, 1.224646799147353207E-16, -1.000000000000000000 ) ) ;
#165 = CC_DESIGN_APPROVAL ( #140, ( #158 ) ) ;
#166 = EDGE_LOOP ( 'NONE', ( #66 ) ) ;
#167 = VERTEX_POINT ( 'NONE', #54 ) ;
#168 = AXIS2_PLACEMENT_3D ( 'NONE', #21, #122, #35 ) ;
#169 = FACE_OUTER_BOUND ( 'NONE', #81, .T. ) ;
#170 = AXIS2_PLACEMENT_3D ( 'NONE', #108, #1, #206 ) ;
#171 = ADVANCED_FACE ( 'NONE', ( #169 ), #56, .F. ) ;
#172 = PERSON_AND_ORGANIZATION ( #214, #114 ) ;
#173 = PERSON_AND_ORGANIZATION_ROLE ( 'design_owner' ) ;
#174 = APPROVAL_PERSON_ORGANIZATION ( #76, #140, #25 ) ;
#175 = APPROVAL_STATUS ( 'not_yet_approved' ) ;
#176 = PERSON_AND_ORGANIZATION ( #214, #114 ) ;
#177 = AXIS2_PLACEMENT_3D ( 'NONE', #209, #36, #58 ) ;
#178 = EDGE_LOOP ( 'NONE', ( #136 ) ) ;
#179 = CARTESIAN_POINT ( 'NONE',  ( 2.793185071074505422E-14, -9.820142552045204525E-16, 7.999999999999996447 ) ) ;
#180 = AXIS2_PLACEMENT_3D ( 'NONE', #82, #120, #33 ) ;
#181 = CARTESIAN_POINT ( 'NONE',  ( 0.0000000000000000000, 0.0000000000000000000, 0.0000000000000000000 ) ) ;
#182 = ORIENTED_EDGE ( 'NONE', *, *, #16, .F. ) ;
#183 = ADVANCED_FACE ( 'NONE', ( #55, #18 ), #127, .T. ) ;
#184 = CARTESIAN_POINT ( 'NONE',  ( 2.793185071074505422E-14, -2.250000000000000444, 7.999999999999996447 ) ) ;
#185 = CARTESIAN_POINT ( 'NONE',  ( 2.793185071074505422E-14, -2.250000000000000444, 7.999999999999996447 ) ) ;
#186 = CLOSED_SHELL ( 'NONE', ( #119, #183, #156 ) ) ;
#187 = PRODUCT_DEFINITION_FORMATION_WITH_SPECIFIED_SOURCE ( 'ANY', '', #10, .NOT_KNOWN. ) ;
#188 = CARTESIAN_POINT ( 'NONE',  ( 2.793185071074505422E-14, -9.820142552045204525E-16, 7.999999999999996447 ) ) ;
#189 = AXIS2_PLACEMENT_3D ( 'NONE', #2, #123, #38 ) ;
#190 = VERTEX_POINT ( 'NONE', #185 ) ;
#191 = PERSON_AND_ORGANIZATION_ROLE ( 'creator' ) ;
#192 = SECURITY_CLASSIFICATION_LEVEL ( 'unclassified' ) ;
#193 = APPROVAL_DATE_TIME ( #131, #37 ) ;
#194 = CARTESIAN_POINT ( 'NONE',  ( 0.0000000000000000000, 0.0000000000000000000, 0.0000000000000000000 ) ) ;
#195 = PERSON_AND_ORGANIZATION_ROLE ( 'creator' ) ;
#196 = LOCAL_TIME ( 13, 23, 34.00000000000000000, #26 ) ;
#197 = FACE_OUTER_BOUND ( 'NONE', #166, .T. ) ;
#198 = ORIENTED_EDGE ( 'NONE', *, *, #16, .T. ) ;
#199 = FACE_OUTER_BOUND ( 'NONE', #83, .T. ) ;
#200 = APPLICATION_CONTEXT ( 'configuration controlled 3d designs of mechanical parts and assemblies' ) ;
#201 = EDGE_LOOP ( 'NONE', ( #147 ) ) ;
#202 = ORIENTED_EDGE ( 'NONE', *, *, #152, .T. ) ;
#203 = EDGE_CURVE ( 'NONE', #154, #154, #125, .T. ) ;
#204 = CARTESIAN_POINT ( 'NONE',  ( -6.413731847436034514E-31, 0.0000000000000000000, -1.836965810494968570E-16 ) ) ;
#205 = DESIGN_CONTEXT ( 'detailed design', #212, 'design' ) ;
#206 = DIRECTION ( 'NONE',  ( -4.275831445896958607E-31, -1.000000000000000000, -1.224646799147353207E-16 ) ) ;
#207 = FACE_OUTER_BOUND ( 'NONE', #135, .T. ) ;
#208 = FACE_BOUND ( 'NONE', #32, .T. ) ;
#209 = CARTESIAN_POINT ( 'NONE',  ( 1.990144363140586139E-13, -6.980486755139912911E-15, 57.00000000000000000 ) ) ;
#210 = PERSON_AND_ORGANIZATION ( #214, #114 ) ;
#211 = DATE_AND_TIME ( #4, #196 ) ;
#212 = APPLICATION_CONTEXT ( 'configuration controlled 3d designs of mechanical parts and assemblies' ) ;
#213 = PERSON_AND_ORGANIZATION_ROLE ( 'classification_officer' ) ;
#214 = PERSON ( 'UNSPECIFIED', 'UNSPECIFIED', 'UNSPECIFIED', ('UNSPECIFIED'), ('UNSPECIFIED'), ('UNSPECIFIED') ) ;
#215 = LOCAL_TIME ( 13, 23, 34.00000000000000000, #79 ) ;
#216 = CC_DESIGN_PERSON_AND_ORGANIZATION_ASSIGNMENT ( #146, #130, ( #187 ) ) ;
#217 = ORIENTED_EDGE ( 'NONE', *, *, #28, .T. ) ;
#218 = ORIENTED_EDGE ( 'NONE', *, *, #40, .F. ) ;
#219 = CARTESIAN_POINT ( 'NONE',  ( -9.643175005850216376E-31, 1.135391725660144413E-32, -2.761915092762713773E-16 ) ) ;
#220 = MANIFOLD_SOLID_BREP ( 'Corps-Déplacer/Copier1[2]', #186 ) ;
#221 = DIRECTION ( 'NONE',  ( -4.275831445896958607E-31, -1.000000000000000000, -1.224646799147353207E-16 ) ) ;
#222 = SECURITY_CLASSIFICATION ( '', '', #192 ) ;
#223 = VERTEX_POINT ( 'NONE', #17 ) ;
ENDSEC;
END-ISO-10303-21;
