ISO-10303-21;
HEADER;
FILE_DESCRIPTION (( 'STEP AP203' ),
    '1' );
FILE_NAME ('57210.step',
    '2021-11-01T12:23:34',
    ( '' ),
    ( '' ),
    'SwSTEP 2.0',
    'SolidWorks 2019',
    '' );
FILE_SCHEMA (( 'CONFIG_CONTROL_DESIGN' ));
ENDSEC;

DATA;
#1 = DIRECTION ( 'NONE',  ( 0.0000000000000000000, -1.000000000000000000, 0.0000000000000000000 ) ) ;
#2 = SHAPE_DEFINITION_REPRESENTATION ( #113, #73 ) ;
#3 = DATE_AND_TIME ( #124, #78 ) ;
#4 = APPROVAL ( #153, 'UNSPECIFIED' ) ;
#5 = DATE_AND_TIME ( #189, #13 ) ;
#6 = DIRECTION ( 'NONE',  ( 1.000000000000000000, 0.0000000000000000000, 0.0000000000000000000 ) ) ;
#7 = AXIS2_PLACEMENT_3D ( 'NONE', #116, #204, #14 ) ;
#8 = DATE_AND_TIME ( #192, #205 ) ;
#9 = ADVANCED_FACE ( 'NONE', ( #219 ), #63, .F. ) ;
#10 = PRODUCT_DEFINITION_FORMATION_WITH_SPECIFIED_SOURCE ( 'ANY', '', #191, .NOT_KNOWN. ) ;
#11 = ADVANCED_FACE ( 'NONE', ( #45 ), #200, .F. ) ;
#12 = EDGE_LOOP ( 'NONE', ( #173 ) ) ;
#13 = LOCAL_TIME ( 13, 23, 34.00000000000000000, #151 ) ;
#14 = DIRECTION ( 'NONE',  ( 4.275831445896959482E-31, 1.000000000000000000, 1.224646799147353207E-16 ) ) ;
#15 = CARTESIAN_POINT ( 'NONE',  ( -6.413731847436034514E-31, 0.0000000000000000000, -1.836965810494968570E-16 ) ) ;
#16 = DIRECTION ( 'NONE',  ( -4.285855558155652404E-31, -1.000000000000000000, -1.227517819005650812E-16 ) ) ;
#17 = VERTEX_POINT ( 'NONE', #121 ) ;
#18 = DIRECTION ( 'NONE',  ( 0.0000000000000000000, 1.000000000000000000, 0.0000000000000000000 ) ) ;
#19 = APPROVAL_STATUS ( 'not_yet_approved' ) ;
#20 = CIRCLE ( 'NONE', #83, 2.999999999999999556 ) ;
#21 = CARTESIAN_POINT ( 'NONE',  ( 0.0000000000000000000, 0.0000000000000000000, 0.0000000000000000000 ) ) ;
#22 = COORDINATED_UNIVERSAL_TIME_OFFSET ( 1, 0, .AHEAD. ) ;
#23 = AXIS2_PLACEMENT_3D ( 'NONE', #80, #144, #215 ) ;
#24 = DIRECTION ( 'NONE',  ( -4.275831445896958607E-31, -1.000000000000000000, -1.224646799147353207E-16 ) ) ;
#25 = ORIENTED_EDGE ( 'NONE', *, *, #174, .T. ) ;
#26 = CC_DESIGN_DATE_AND_TIME_ASSIGNMENT ( #38, #138, ( #110 ) ) ;
#27 = AXIS2_PLACEMENT_3D ( 'NONE', #102, #150, #84 ) ;
#28 = CARTESIAN_POINT ( 'NONE',  ( -7.500247226772390612E-31, 3.819917276719498622E-33, -2.148156183259888243E-16 ) ) ;
#29 = APPLICATION_CONTEXT ( 'configuration controlled 3d designs of mechanical parts and assemblies' ) ;
#30 = ORIENTED_EDGE ( 'NONE', *, *, #167, .F. ) ;
#31 = EDGE_LOOP ( 'NONE', ( #30 ) ) ;
#32 = AXIS2_PLACEMENT_3D ( 'NONE', #28, #164, #51 ) ;
#33 = PLANE ( 'NONE',  #201 ) ;
#34 = DIRECTION ( 'NONE',  ( 3.491481338843133355E-15, -1.227517819005651059E-16, 1.000000000000000000 ) ) ;
#35 = APPROVAL ( #19, 'UNSPECIFIED' ) ;
#36 = FACE_OUTER_BOUND ( 'NONE', #177, .T. ) ;
#37 = APPROVAL_PERSON_ORGANIZATION ( #170, #35, #41 ) ;
#38 = DATE_AND_TIME ( #57, #128 ) ;
#39 = APPROVAL_STATUS ( 'not_yet_approved' ) ;
#40 = ADVANCED_FACE ( 'NONE', ( #194, #94 ), #98, .T. ) ;
#41 = APPROVAL_ROLE ( '' ) ;
#42 = CC_DESIGN_SECURITY_CLASSIFICATION ( #110, ( #10 ) ) ;
#43 = EDGE_LOOP ( 'NONE', ( #82 ) ) ;
#44 = ADVANCED_FACE ( 'NONE', ( #109 ), #95, .F. ) ;
#45 = FACE_OUTER_BOUND ( 'NONE', #31, .T. ) ;
#46 = ORIENTED_EDGE ( 'NONE', *, *, #167, .T. ) ;
#47 = ORIENTED_EDGE ( 'NONE', *, *, #48, .T. ) ;
#48 = EDGE_CURVE ( 'NONE', #100, #100, #152, .T. ) ;
#49 = ORGANIZATION ( 'UNSPECIFIED', 'UNSPECIFIED', '' ) ;
#50 = VERTEX_POINT ( 'NONE', #54 ) ;
#51 = DIRECTION ( 'NONE',  ( -4.285855558155653280E-31, -1.000000000000000000, -1.227517819005650812E-16 ) ) ;
#52 = CYLINDRICAL_SURFACE ( 'NONE', #212, 1.749999999999999778 ) ;
#53 = CC_DESIGN_APPROVAL ( #195, ( #10 ) ) ;
#54 = CARTESIAN_POINT ( 'NONE',  ( 2.444036937190193033E-14, -1.750000000000001554, 6.999999999999999112 ) ) ;
#55 = PERSON_AND_ORGANIZATION ( #148, #49 ) ;
#56 = PRODUCT_DEFINITION ( 'UNKNOWN', '', #10, #85 ) ;
#57 = CALENDAR_DATE ( 2021, 1, 11 ) ;
#58 = PERSON_AND_ORGANIZATION_ROLE ( 'design_owner' ) ;
#59 = APPROVAL_DATE_TIME ( #8, #195 ) ;
#60 = UNCERTAINTY_MEASURE_WITH_UNIT (LENGTH_MEASURE( 1.000000000000000082E-05 ), #134, 'distance_accuracy_value', 'NONE');
#61 = COORDINATED_UNIVERSAL_TIME_OFFSET ( 1, 0, .AHEAD. ) ;
#62 = ORIENTED_EDGE ( 'NONE', *, *, #64, .T. ) ;
#63 = PLANE ( 'NONE',  #172 ) ;
#64 = EDGE_CURVE ( 'NONE', #88, #88, #86, .T. ) ;
#65 =( NAMED_UNIT ( * ) PLANE_ANGLE_UNIT ( ) SI_UNIT ( $, .RADIAN. ) );
#66 = DIRECTION ( 'NONE',  ( -3.491481338843133355E-15, 1.224646799147353207E-16, -1.000000000000000000 ) ) ;
#67 = APPROVAL_PERSON_ORGANIZATION ( #55, #4, #137 ) ;
#68 = DIRECTION ( 'NONE',  ( 3.491481338843133355E-15, -1.227517819005651059E-16, 1.000000000000000000 ) ) ;
#69 = CARTESIAN_POINT ( 'NONE',  ( 3.943240970200190237E-14, 2.999999999999999112, 11.29389100932941581 ) ) ;
#70 = APPROVAL_ROLE ( '' ) ;
#71 = PERSON_AND_ORGANIZATION ( #148, #49 ) ;
#72 = MECHANICAL_CONTEXT ( 'NONE', #92, 'mechanical' ) ;
#73 = ADVANCED_BREP_SHAPE_REPRESENTATION ( '57210', ( #133, #208, #169 ), #161 ) ;
#74 = AXIS2_PLACEMENT_3D ( 'NONE', #183, #181, #1 ) ;
#75 = CC_DESIGN_DATE_AND_TIME_ASSIGNMENT ( #187, #104, ( #56 ) ) ;
#76 = SECURITY_CLASSIFICATION_LEVEL ( 'unclassified' ) ;
#77 = ORIENTED_EDGE ( 'NONE', *, *, #64, .F. ) ;
#78 = LOCAL_TIME ( 13, 23, 34.00000000000000000, #22 ) ;
#79 = EDGE_LOOP ( 'NONE', ( #81 ) ) ;
#80 = CARTESIAN_POINT ( 'NONE',  ( -3.206816838010677856E-31, 1.124799933034399755E-32, -9.184688465421452921E-17 ) ) ;
#81 = ORIENTED_EDGE ( 'NONE', *, *, #48, .F. ) ;
#82 = ORIENTED_EDGE ( 'NONE', *, *, #199, .F. ) ;
#83 = AXIS2_PLACEMENT_3D ( 'NONE', #101, #203, #182 ) ;
#84 = DIRECTION ( 'NONE',  ( 0.0000000000000000000, -1.000000000000000000, 0.0000000000000000000 ) ) ;
#85 = DESIGN_CONTEXT ( 'detailed design', #29, 'design' ) ;
#86 = CIRCLE ( 'NONE', #32, 1.749999999999998890 ) ;
#87 = CARTESIAN_POINT ( 'NONE',  ( 2.444036937190193033E-14, -1.750000000000001554, 6.999999999999999112 ) ) ;
#88 = VERTEX_POINT ( 'NONE', #179 ) ;
#89 = CIRCLE ( 'NONE', #74, 1.750000000000000666 ) ;
#90 = CALENDAR_DATE ( 2021, 1, 11 ) ;
#91 = PERSON_AND_ORGANIZATION ( #148, #49 ) ;
#92 = APPLICATION_CONTEXT ( 'configuration controlled 3d designs of mechanical parts and assemblies' ) ;
#93 = ADVANCED_FACE ( 'NONE', ( #36, #130 ), #221, .T. ) ;
#94 = FACE_BOUND ( 'NONE', #96, .T. ) ;
#95 = PLANE ( 'NONE',  #23 ) ;
#96 = EDGE_LOOP ( 'NONE', ( #46 ) ) ;
#97 = EDGE_LOOP ( 'NONE', ( #62 ) ) ;
#98 = CONICAL_SURFACE ( 'NONE', #141, 2.600000000000002309, 0.7853981633974516097 ) ;
#99 = FACE_OUTER_BOUND ( 'NONE', #140, .T. ) ;
#100 = VERTEX_POINT ( 'NONE', #206 ) ;
#101 = CARTESIAN_POINT ( 'NONE',  ( 3.943240970200190237E-14, -5.270827726820019170E-16, 11.29389100932941581 ) ) ;
#102 = CARTESIAN_POINT ( 'NONE',  ( 2.444036937190193033E-14, -8.592624733039555931E-16, 6.999999999999999112 ) ) ;
#103 = LOCAL_TIME ( 13, 23, 34.00000000000000000, #61 ) ;
#104 = DATE_TIME_ROLE ( 'creation_date' ) ;
#105 = CC_DESIGN_PERSON_AND_ORGANIZATION_ASSIGNMENT ( #106, #186, ( #110 ) ) ;
#106 = PERSON_AND_ORGANIZATION ( #148, #49 ) ;
#107 = CC_DESIGN_APPROVAL ( #4, ( #56 ) ) ;
#108 = ORIENTED_EDGE ( 'NONE', *, *, #199, .T. ) ;
#109 = FACE_OUTER_BOUND ( 'NONE', #217, .T. ) ;
#110 = SECURITY_CLASSIFICATION ( '', '', #76 ) ;
#111 = DIRECTION ( 'NONE',  ( -3.491481338843133355E-15, 1.224646799147353207E-16, -1.000000000000000000 ) ) ;
#112 = ADVANCED_FACE ( 'NONE', ( #165, #99 ), #123, .F. ) ;
#113 = PRODUCT_DEFINITION_SHAPE ( 'NONE', 'NONE',  #56 ) ;
#114 = EDGE_LOOP ( 'NONE', ( #25 ) ) ;
#115 = AXIS2_PLACEMENT_3D ( 'NONE', #223, #66, #18 ) ;
#116 = CARTESIAN_POINT ( 'NONE',  ( 0.0000000000000000000, 0.0000000000000000000, 0.0000000000000000000 ) ) ;
#117 = DIRECTION ( 'NONE',  ( -2.639570406268318432E-31, -1.000000000000000000, -1.227517819005651059E-16 ) ) ;
#118 = DIRECTION ( 'NONE',  ( 3.491481338843133355E-15, -1.224646799147353207E-16, 1.000000000000000000 ) ) ;
#119 = CLOSED_SHELL ( 'NONE', ( #93, #40, #11, #112, #9 ) ) ;
#120 = ADVANCED_FACE ( 'NONE', ( #220, #184 ), #52, .T. ) ;
#121 = CARTESIAN_POINT ( 'NONE',  ( 1.990144363140586139E-13, 2.599999999999995648, 57.00000000000000000 ) ) ;
#122 = PERSON_AND_ORGANIZATION ( #148, #49 ) ;
#123 = TOROIDAL_SURFACE ( 'NONE', #178, 9.750000000000000000, 8.000000000000000000 ) ;
#124 = CALENDAR_DATE ( 2021, 1, 11 ) ;
#125 = APPLICATION_PROTOCOL_DEFINITION ( 'international standard', 'config_control_design', 1994, #29 ) ;
#126 = CARTESIAN_POINT ( 'NONE',  ( 2.444036937190193349E-14, 2.249639673992782580E-32, 7.000000000000000000 ) ) ;
#127 = ORIENTED_EDGE ( 'NONE', *, *, #213, .F. ) ;
#128 = LOCAL_TIME ( 13, 23, 34.00000000000000000, #207 ) ;
#129 = DIRECTION ( 'NONE',  ( 3.491481338843133355E-15, -1.224646799147353207E-16, 1.000000000000000000 ) ) ;
#130 = FACE_OUTER_BOUND ( 'NONE', #43, .T. ) ;
#131 = APPROVAL_PERSON_ORGANIZATION ( #122, #195, #70 ) ;
#132 = FACE_OUTER_BOUND ( 'NONE', #114, .T. ) ;
#133 = MANIFOLD_SOLID_BREP ( 'Corps-Déplacer/Copier1[1]', #119 ) ;
#134 =( LENGTH_UNIT ( ) NAMED_UNIT ( * ) SI_UNIT ( .MILLI., .METRE. ) );
#135 = CARTESIAN_POINT ( 'NONE',  ( 2.444036937190193349E-14, 2.249639673992782580E-32, 7.000000000000000000 ) ) ;
#136 = COORDINATED_UNIVERSAL_TIME_OFFSET ( 1, 0, .AHEAD. ) ;
#137 = APPROVAL_ROLE ( '' ) ;
#138 = DATE_TIME_ROLE ( 'classification_date' ) ;
#139 = PERSON_AND_ORGANIZATION_ROLE ( 'creator' ) ;
#140 = EDGE_LOOP ( 'NONE', ( #108 ) ) ;
#141 = AXIS2_PLACEMENT_3D ( 'NONE', #158, #142, #214 ) ;
#142 = DIRECTION ( 'NONE',  ( -3.491481338843133355E-15, 1.224646799147353207E-16, -1.000000000000000000 ) ) ;
#143 = CC_DESIGN_PERSON_AND_ORGANIZATION_ASSIGNMENT ( #91, #210, ( #10 ) ) ;
#144 = DIRECTION ( 'NONE',  ( 3.491481338843133355E-15, -1.224646799147353207E-16, 1.000000000000000000 ) ) ;
#145 = EDGE_LOOP ( 'NONE', ( #127 ) ) ;
#146 =( NAMED_UNIT ( * ) SI_UNIT ( $, .STERADIAN. ) SOLID_ANGLE_UNIT ( ) );
#147 = CARTESIAN_POINT ( 'NONE',  ( 2.444036937190193033E-14, 0.0000000000000000000, 6.999999999999999112 ) ) ;
#148 = PERSON ( 'UNSPECIFIED', 'UNSPECIFIED', 'UNSPECIFIED', ('UNSPECIFIED'), ('UNSPECIFIED'), ('UNSPECIFIED') ) ;
#149 = VERTEX_POINT ( 'NONE', #69 ) ;
#150 = DIRECTION ( 'NONE',  ( 3.491481338843133355E-15, -1.227517819005651059E-16, 1.000000000000000000 ) ) ;
#151 = COORDINATED_UNIVERSAL_TIME_OFFSET ( 1, 0, .AHEAD. ) ;
#152 = CIRCLE ( 'NONE', #218, 3.000000000000002665 ) ;
#153 = APPROVAL_STATUS ( 'not_yet_approved' ) ;
#154 = CC_DESIGN_PERSON_AND_ORGANIZATION_ASSIGNMENT ( #166, #139, ( #10 ) ) ;
#155 = PERSON_AND_ORGANIZATION_ROLE ( 'creator' ) ;
#156 = DIRECTION ( 'NONE',  ( 0.0000000000000000000, 0.0000000000000000000, 1.000000000000000000 ) ) ;
#157 = PERSON_AND_ORGANIZATION ( #148, #49 ) ;
#158 = CARTESIAN_POINT ( 'NONE',  ( 1.990144363140586139E-13, -6.980486755139912911E-15, 57.00000000000000000 ) ) ;
#159 = CC_DESIGN_APPROVAL ( #35, ( #110 ) ) ;
#160 = ORIENTED_EDGE ( 'NONE', *, *, #174, .F. ) ;
#161 =( GEOMETRIC_REPRESENTATION_CONTEXT ( 3 ) GLOBAL_UNCERTAINTY_ASSIGNED_CONTEXT ( ( #60 ) ) GLOBAL_UNIT_ASSIGNED_CONTEXT ( ( #134, #65, #146 ) ) REPRESENTATION_CONTEXT ( 'NONE', 'WORKASPACE' ) );
#162 = EDGE_LOOP ( 'NONE', ( #160 ) ) ;
#163 = DIRECTION ( 'NONE',  ( -4.275831445896958607E-31, -1.000000000000000000, -1.224646799147353207E-16 ) ) ;
#164 = DIRECTION ( 'NONE',  ( 3.491481338843133355E-15, -1.227517819005651059E-16, 1.000000000000000000 ) ) ;
#165 = FACE_OUTER_BOUND ( 'NONE', #12, .T. ) ;
#166 = PERSON_AND_ORGANIZATION ( #148, #49 ) ;
#167 = EDGE_CURVE ( 'NONE', #17, #17, #188, .T. ) ;
#168 = APPLICATION_PROTOCOL_DEFINITION ( 'international standard', 'config_control_design', 1994, #92 ) ;
#169 = AXIS2_PLACEMENT_3D ( 'NONE', #21, #156, #6 ) ;
#170 = PERSON_AND_ORGANIZATION ( #148, #49 ) ;
#171 = APPROVAL_DATE_TIME ( #3, #4 ) ;
#172 = AXIS2_PLACEMENT_3D ( 'NONE', #126, #129, #24 ) ;
#173 = ORIENTED_EDGE ( 'NONE', *, *, #213, .T. ) ;
#174 = EDGE_CURVE ( 'NONE', #202, #202, #89, .T. ) ;
#175 = DIRECTION ( 'NONE',  ( -3.491481338843133355E-15, 1.224646799147353207E-16, -1.000000000000000000 ) ) ;
#176 = DIRECTION ( 'NONE',  ( 0.0000000000000000000, 1.000000000000000000, 0.0000000000000000000 ) ) ;
#177 = EDGE_LOOP ( 'NONE', ( #47 ) ) ;
#178 = AXIS2_PLACEMENT_3D ( 'NONE', #147, #68, #117 ) ;
#179 = CARTESIAN_POINT ( 'NONE',  ( -1.500049445354477947E-30, -1.749999999999998890, -4.296312366519775993E-16 ) ) ;
#180 = CC_DESIGN_PERSON_AND_ORGANIZATION_ASSIGNMENT ( #71, #155, ( #56 ) ) ;
#181 = DIRECTION ( 'NONE',  ( 3.491481338843133355E-15, -1.227517819005651059E-16, 1.000000000000000000 ) ) ;
#182 = DIRECTION ( 'NONE',  ( 0.0000000000000000000, 1.000000000000000000, 0.0000000000000000000 ) ) ;
#183 = CARTESIAN_POINT ( 'NONE',  ( 2.444036937190193033E-14, -8.592624733039555931E-16, 6.999999999999999112 ) ) ;
#184 = FACE_OUTER_BOUND ( 'NONE', #162, .T. ) ;
#185 = CC_DESIGN_PERSON_AND_ORGANIZATION_ASSIGNMENT ( #157, #58, ( #191 ) ) ;
#186 = PERSON_AND_ORGANIZATION_ROLE ( 'classification_officer' ) ;
#187 = DATE_AND_TIME ( #90, #103 ) ;
#188 = CIRCLE ( 'NONE', #115, 2.600000000000002309 ) ;
#189 = CALENDAR_DATE ( 2021, 1, 11 ) ;
#190 = ADVANCED_FACE ( 'NONE', ( #132 ), #33, .T. ) ;
#191 = PRODUCT ( '57210', '57210', '', ( #72 ) ) ;
#192 = CALENDAR_DATE ( 2021, 1, 11 ) ;
#193 = AXIS2_PLACEMENT_3D ( 'NONE', #211, #175, #196 ) ;
#194 = FACE_OUTER_BOUND ( 'NONE', #79, .T. ) ;
#195 = APPROVAL ( #39, 'UNSPECIFIED' ) ;
#196 = DIRECTION ( 'NONE',  ( 4.275831445896958607E-31, 1.000000000000000000, 1.224646799147353207E-16 ) ) ;
#197 = CARTESIAN_POINT ( 'NONE',  ( 1.976178437785213605E-13, -6.931500883174019483E-15, 56.60000000000000142 ) ) ;
#198 = CIRCLE ( 'NONE', #27, 1.750000000000000666 ) ;
#199 = EDGE_CURVE ( 'NONE', #149, #149, #20, .T. ) ;
#200 = PLANE ( 'NONE',  #193 ) ;
#201 = AXIS2_PLACEMENT_3D ( 'NONE', #135, #118, #163 ) ;
#202 = VERTEX_POINT ( 'NONE', #87 ) ;
#203 = DIRECTION ( 'NONE',  ( -3.491481338843133355E-15, 1.227517819005651059E-16, -1.000000000000000000 ) ) ;
#204 = DIRECTION ( 'NONE',  ( -3.491481338843133355E-15, 1.224646799147353207E-16, -1.000000000000000000 ) ) ;
#205 = LOCAL_TIME ( 13, 23, 34.00000000000000000, #136 ) ;
#206 = CARTESIAN_POINT ( 'NONE',  ( 1.976178437785213605E-13, 2.999999999999995559, 56.60000000000000142 ) ) ;
#207 = COORDINATED_UNIVERSAL_TIME_OFFSET ( 1, 0, .AHEAD. ) ;
#208 = MANIFOLD_SOLID_BREP ( 'Corps-Déplacer/Copier1[2]', #222 ) ;
#209 = APPROVAL_DATE_TIME ( #5, #35 ) ;
#210 = PERSON_AND_ORGANIZATION_ROLE ( 'design_supplier' ) ;
#211 = CARTESIAN_POINT ( 'NONE',  ( 1.990144363140586139E-13, 1.949687717460406406E-32, 57.00000000000000000 ) ) ;
#212 = AXIS2_PLACEMENT_3D ( 'NONE', #15, #34, #16 ) ;
#213 = EDGE_CURVE ( 'NONE', #50, #50, #198, .T. ) ;
#214 = DIRECTION ( 'NONE',  ( 0.0000000000000000000, 1.000000000000000000, 0.0000000000000000000 ) ) ;
#215 = DIRECTION ( 'NONE',  ( -4.275831445896958607E-31, -1.000000000000000000, -1.224646799147353207E-16 ) ) ;
#216 = PRODUCT_RELATED_PRODUCT_CATEGORY ( 'detail', '', ( #191 ) ) ;
#217 = EDGE_LOOP ( 'NONE', ( #77 ) ) ;
#218 = AXIS2_PLACEMENT_3D ( 'NONE', #197, #111, #176 ) ;
#219 = FACE_OUTER_BOUND ( 'NONE', #145, .T. ) ;
#220 = FACE_OUTER_BOUND ( 'NONE', #97, .T. ) ;
#221 = CYLINDRICAL_SURFACE ( 'NONE', #7, 2.999999999999999556 ) ;
#222 = CLOSED_SHELL ( 'NONE', ( #190, #120, #44 ) ) ;
#223 = CARTESIAN_POINT ( 'NONE',  ( 1.990144363140586139E-13, -6.980486755139912911E-15, 57.00000000000000000 ) ) ;
ENDSEC;
END-ISO-10303-21;
