ISO-10303-21;
HEADER;
FILE_DESCRIPTION (( 'STEP AP203' ),
    '1' );
FILE_NAME ('57209.step',
    '2021-11-01T12:23:33',
    ( '' ),
    ( '' ),
    'SwSTEP 2.0',
    'SolidWorks 2019',
    '' );
FILE_SCHEMA (( 'CONFIG_CONTROL_DESIGN' ));
ENDSEC;

DATA;
#1 = CC_DESIGN_DATE_AND_TIME_ASSIGNMENT ( #103, #138, ( #201 ) ) ;
#2 = DATE_AND_TIME ( #130, #74 ) ;
#3 = LOCAL_TIME ( 13, 23, 33.00000000000000000, #110 ) ;
#4 = APPROVAL_STATUS ( 'not_yet_approved' ) ;
#5 = MANIFOLD_SOLID_BREP ( 'Corps-Déplacer/Copier1[2]', #155 ) ;
#6 = COORDINATED_UNIVERSAL_TIME_OFFSET ( 1, 0, .AHEAD. ) ;
#7 = ORIENTED_EDGE ( 'NONE', *, *, #83, .T. ) ;
#8 = EDGE_LOOP ( 'NONE', ( #7 ) ) ;
#9 = DIRECTION ( 'NONE',  ( -3.491481338843133355E-15, 1.224646799147353207E-16, -1.000000000000000000 ) ) ;
#10 = PRODUCT_DEFINITION_SHAPE ( 'NONE', 'NONE',  #40 ) ;
#11 = CIRCLE ( 'NONE', #127, 0.8749999999999996669 ) ;
#12 = DIRECTION ( 'NONE',  ( -3.491481338843133355E-15, 1.224646799147353207E-16, -1.000000000000000000 ) ) ;
#13 = CC_DESIGN_PERSON_AND_ORGANIZATION_ASSIGNMENT ( #210, #144, ( #105 ) ) ;
#14 = FACE_BOUND ( 'NONE', #179, .T. ) ;
#15 = PERSON_AND_ORGANIZATION ( #85, #218 ) ;
#16 = CYLINDRICAL_SURFACE ( 'NONE', #91, 0.8749999999999995559 ) ;
#17 = SHAPE_DEFINITION_REPRESENTATION ( #10, #51 ) ;
#18 = AXIS2_PLACEMENT_3D ( 'NONE', #151, #181, #167 ) ;
#19 = APPLICATION_PROTOCOL_DEFINITION ( 'international standard', 'config_control_design', 1994, #212 ) ;
#20 = DIRECTION ( 'NONE',  ( 0.0000000000000000000, 0.0000000000000000000, 1.000000000000000000 ) ) ;
#21 = PERSON_AND_ORGANIZATION_ROLE ( 'design_supplier' ) ;
#22 = EDGE_LOOP ( 'NONE', ( #24 ) ) ;
#23 = COORDINATED_UNIVERSAL_TIME_OFFSET ( 1, 0, .AHEAD. ) ;
#24 = ORIENTED_EDGE ( 'NONE', *, *, #29, .T. ) ;
#25 = DATE_AND_TIME ( #44, #61 ) ;
#26 = ORIENTED_EDGE ( 'NONE', *, *, #77, .T. ) ;
#27 = APPROVAL_PERSON_ORGANIZATION ( #156, #56, #206 ) ;
#28 = CC_DESIGN_APPROVAL ( #101, ( #201 ) ) ;
#29 = EDGE_CURVE ( 'NONE', #190, #190, #209, .T. ) ;
#30 = CARTESIAN_POINT ( 'NONE',  ( 1.885399922975292327E-14, 1.124819836996387458E-32, 5.400000000000000355 ) ) ;
#31 = PLANE ( 'NONE',  #72 ) ;
#32 = ADVANCED_FACE ( 'NONE', ( #50 ), #31, .F. ) ;
#33 = CC_DESIGN_SECURITY_CLASSIFICATION ( #201, ( #105 ) ) ;
#34 = DIRECTION ( 'NONE',  ( 0.0000000000000000000, 1.000000000000000000, 0.0000000000000000000 ) ) ;
#35 = CARTESIAN_POINT ( 'NONE',  ( -6.413731847436034514E-31, 0.0000000000000000000, -1.836965810494968570E-16 ) ) ;
#36 = CARTESIAN_POINT ( 'NONE',  ( 0.0000000000000000000, 0.0000000000000000000, 0.0000000000000000000 ) ) ;
#37 = COORDINATED_UNIVERSAL_TIME_OFFSET ( 1, 0, .AHEAD. ) ;
#38 = AXIS2_PLACEMENT_3D ( 'NONE', #118, #9, #215 ) ;
#39 = LOCAL_TIME ( 13, 23, 33.00000000000000000, #6 ) ;
#40 = PRODUCT_DEFINITION ( 'UNKNOWN', '', #105, #108 ) ;
#41 = DIRECTION ( 'NONE',  ( 3.491481338843133355E-15, -1.227517819005651059E-16, 1.000000000000000000 ) ) ;
#42 = ADVANCED_FACE ( 'NONE', ( #197, #150 ), #16, .T. ) ;
#43 = CIRCLE ( 'NONE', #109, 0.8749999999999994449 ) ;
#44 = CALENDAR_DATE ( 2021, 1, 11 ) ;
#45 = ADVANCED_FACE ( 'NONE', ( #136, #14 ), #75, .T. ) ;
#46 = APPROVAL_DATE_TIME ( #2, #146 ) ;
#47 = UNCERTAINTY_MEASURE_WITH_UNIT (LENGTH_MEASURE( 1.000000000000000082E-05 ), #121, 'distance_accuracy_value', 'NONE');
#48 = ORIENTED_EDGE ( 'NONE', *, *, #221, .T. ) ;
#49 = CC_DESIGN_DATE_AND_TIME_ASSIGNMENT ( #92, #107, ( #40 ) ) ;
#50 = FACE_OUTER_BOUND ( 'NONE', #132, .T. ) ;
#51 = ADVANCED_BREP_SHAPE_REPRESENTATION ( '57209', ( #160, #5, #94 ), #191 ) ;
#52 = EDGE_LOOP ( 'NONE', ( #208 ) ) ;
#53 = CARTESIAN_POINT ( 'NONE',  ( 1.885399922975291696E-14, -6.628596222630513843E-16, 5.399999999999998579 ) ) ;
#54 = FACE_OUTER_BOUND ( 'NONE', #177, .T. ) ;
#55 = FACE_OUTER_BOUND ( 'NONE', #8, .T. ) ;
#56 = APPROVAL ( #192, 'UNSPECIFIED' ) ;
#57 = VERTEX_POINT ( 'NONE', #125 ) ;
#58 = TOROIDAL_SURFACE ( 'NONE', #165, 8.875000000000000000, 8.000000000000000000 ) ;
#59 = CARTESIAN_POINT ( 'NONE',  ( -7.500247226772390612E-31, -0.8749999999999994449, -2.148156183259888243E-16 ) ) ;
#60 = EDGE_CURVE ( 'NONE', #126, #126, #184, .T. ) ;
#61 = LOCAL_TIME ( 13, 23, 33.00000000000000000, #23 ) ;
#62 = PERSON_AND_ORGANIZATION_ROLE ( 'creator' ) ;
#63 = ORIENTED_EDGE ( 'NONE', *, *, #90, .T. ) ;
#64 = APPROVAL_DATE_TIME ( #25, #56 ) ;
#65 = CARTESIAN_POINT ( 'NONE',  ( 1.885399922975292012E-14, 0.0000000000000000000, 5.399999999999999467 ) ) ;
#66 = CARTESIAN_POINT ( 'NONE',  ( 1.885399922975291696E-14, -6.628596222630513843E-16, 5.399999999999998579 ) ) ;
#67 = CARTESIAN_POINT ( 'NONE',  ( 1.326762908760390423E-13, 8.998558695971062171E-33, 38.00000000000000000 ) ) ;
#68 = DIRECTION ( 'NONE',  ( 4.275831445896958607E-31, 1.000000000000000000, 1.224646799147353207E-16 ) ) ;
#69 = AXIS2_PLACEMENT_3D ( 'NONE', #180, #99, #119 ) ;
#70 = CC_DESIGN_APPROVAL ( #56, ( #40 ) ) ;
#71 =( NAMED_UNIT ( * ) PLANE_ANGLE_UNIT ( ) SI_UNIT ( $, .RADIAN. ) );
#72 = AXIS2_PLACEMENT_3D ( 'NONE', #196, #166, #217 ) ;
#73 = PERSON_AND_ORGANIZATION ( #85, #218 ) ;
#74 = LOCAL_TIME ( 13, 23, 33.00000000000000000, #147 ) ;
#75 = CONICAL_SURFACE ( 'NONE', #38, 1.199999999999997957, 0.7853981633974450594 ) ;
#76 = DIRECTION ( 'NONE',  ( 3.491481338843133355E-15, -1.227517819005651059E-16, 1.000000000000000000 ) ) ;
#77 = EDGE_CURVE ( 'NONE', #87, #87, #140, .T. ) ;
#78 = ORIENTED_EDGE ( 'NONE', *, *, #221, .F. ) ;
#79 = DIRECTION ( 'NONE',  ( -4.275831445896958607E-31, -1.000000000000000000, -1.224646799147353207E-16 ) ) ;
#80 = DIRECTION ( 'NONE',  ( 3.491481338843133355E-15, -1.227517819005651059E-16, 1.000000000000000000 ) ) ;
#81 = APPROVAL_DATE_TIME ( #158, #101 ) ;
#82 = CARTESIAN_POINT ( 'NONE',  ( 1.326762908760390423E-13, -4.653657836759941941E-15, 38.00000000000000000 ) ) ;
#83 = EDGE_CURVE ( 'NONE', #202, #202, #11, .T. ) ;
#84 = VERTEX_POINT ( 'NONE', #59 ) ;
#85 = PERSON ( 'UNSPECIFIED', 'UNSPECIFIED', 'UNSPECIFIED', ('UNSPECIFIED'), ('UNSPECIFIED'), ('UNSPECIFIED') ) ;
#86 = APPLICATION_PROTOCOL_DEFINITION ( 'international standard', 'config_control_design', 1994, #152 ) ;
#87 = VERTEX_POINT ( 'NONE', #142 ) ;
#88 = PERSON_AND_ORGANIZATION_ROLE ( 'design_owner' ) ;
#89 = ORIENTED_EDGE ( 'NONE', *, *, #83, .F. ) ;
#90 = EDGE_CURVE ( 'NONE', #57, #57, #163, .T. ) ;
#91 = AXIS2_PLACEMENT_3D ( 'NONE', #35, #80, #97 ) ;
#92 = DATE_AND_TIME ( #207, #39 ) ;
#93 = ADVANCED_FACE ( 'NONE', ( #183 ), #149, .F. ) ;
#94 = AXIS2_PLACEMENT_3D ( 'NONE', #36, #20, #100 ) ;
#95 = CARTESIAN_POINT ( 'NONE',  ( -3.750123613386195744E-31, -9.364582688073908918E-33, -1.074078091629944245E-16 ) ) ;
#96 = EDGE_LOOP ( 'NONE', ( #48 ) ) ;
#97 = DIRECTION ( 'NONE',  ( -4.285855558155654155E-31, -1.000000000000000000, -1.227517819005650812E-16 ) ) ;
#98 = FACE_OUTER_BOUND ( 'NONE', #148, .T. ) ;
#99 = DIRECTION ( 'NONE',  ( -3.491481338843133355E-15, 1.227517819005651059E-16, -1.000000000000000000 ) ) ;
#100 = DIRECTION ( 'NONE',  ( 1.000000000000000000, 0.0000000000000000000, 0.0000000000000000000 ) ) ;
#101 = APPROVAL ( #124, 'UNSPECIFIED' ) ;
#102 = DIRECTION ( 'NONE',  ( -4.348801441185602143E-31, -1.000000000000000000, -1.227517819005651059E-16 ) ) ;
#103 = DATE_AND_TIME ( #122, #3 ) ;
#104 = AXIS2_PLACEMENT_3D ( 'NONE', #67, #135, #219 ) ;
#105 = PRODUCT_DEFINITION_FORMATION_WITH_SPECIFIED_SOURCE ( 'ANY', '', #175, .NOT_KNOWN. ) ;
#106 = CARTESIAN_POINT ( 'NONE',  ( 1.885399922975291696E-14, -0.8750000000000003331, 5.399999999999998579 ) ) ;
#107 = DATE_TIME_ROLE ( 'creation_date' ) ;
#108 = DESIGN_CONTEXT ( 'detailed design', #212, 'design' ) ;
#109 = AXIS2_PLACEMENT_3D ( 'NONE', #95, #171, #220 ) ;
#110 = COORDINATED_UNIVERSAL_TIME_OFFSET ( 1, 0, .AHEAD. ) ;
#111 = APPROVAL_PERSON_ORGANIZATION ( #15, #101, #187 ) ;
#112 = ORIENTED_EDGE ( 'NONE', *, *, #60, .F. ) ;
#113 = ORIENTED_EDGE ( 'NONE', *, *, #77, .F. ) ;
#114 = AXIS2_PLACEMENT_3D ( 'NONE', #66, #185, #186 ) ;
#115 = FACE_OUTER_BOUND ( 'NONE', #194, .T. ) ;
#116 = DIRECTION ( 'NONE',  ( -4.275831445896958607E-31, -1.000000000000000000, -1.224646799147353207E-16 ) ) ;
#117 = ADVANCED_FACE ( 'NONE', ( #200 ), #168, .T. ) ;
#118 = CARTESIAN_POINT ( 'NONE',  ( 1.326762908760390423E-13, -4.653657836759941941E-15, 38.00000000000000000 ) ) ;
#119 = DIRECTION ( 'NONE',  ( 0.0000000000000000000, 1.000000000000000000, 0.0000000000000000000 ) ) ;
#120 = EDGE_LOOP ( 'NONE', ( #89 ) ) ;
#121 =( LENGTH_UNIT ( ) NAMED_UNIT ( * ) SI_UNIT ( .MILLI., .METRE. ) );
#122 = CALENDAR_DATE ( 2021, 1, 11 ) ;
#123 = PERSON_AND_ORGANIZATION ( #85, #218 ) ;
#124 = APPROVAL_STATUS ( 'not_yet_approved' ) ;
#125 = CARTESIAN_POINT ( 'NONE',  ( 1.326762908760390423E-13, 1.199999999999993294, 38.00000000000000000 ) ) ;
#126 = VERTEX_POINT ( 'NONE', #222 ) ;
#127 = AXIS2_PLACEMENT_3D ( 'NONE', #53, #76, #170 ) ;
#128 = ADVANCED_FACE ( 'NONE', ( #98 ), #216, .F. ) ;
#129 = PERSON_AND_ORGANIZATION ( #85, #218 ) ;
#130 = CALENDAR_DATE ( 2021, 1, 11 ) ;
#131 = CC_DESIGN_APPROVAL ( #146, ( #105 ) ) ;
#132 = EDGE_LOOP ( 'NONE', ( #78 ) ) ;
#133 = CLOSED_SHELL ( 'NONE', ( #143, #45, #128, #178, #93 ) ) ;
#134 = DIRECTION ( 'NONE',  ( 3.491481338843133355E-15, -1.224646799147353207E-16, 1.000000000000000000 ) ) ;
#135 = DIRECTION ( 'NONE',  ( -3.491481338843133355E-15, 1.224646799147353207E-16, -1.000000000000000000 ) ) ;
#136 = FACE_OUTER_BOUND ( 'NONE', #174, .T. ) ;
#137 = DIRECTION ( 'NONE',  ( -3.491481338843133355E-15, 1.224646799147353207E-16, -1.000000000000000000 ) ) ;
#138 = DATE_TIME_ROLE ( 'classification_date' ) ;
#139 = PRODUCT_RELATED_PRODUCT_CATEGORY ( 'detail', '', ( #175 ) ) ;
#140 = CIRCLE ( 'NONE', #69, 1.499999999999995781 ) ;
#141 =( NAMED_UNIT ( * ) SI_UNIT ( $, .STERADIAN. ) SOLID_ANGLE_UNIT ( ) );
#142 = CARTESIAN_POINT ( 'NONE',  ( 2.967723941059915833E-14, 1.499999999999995337, 8.499899191909301877 ) ) ;
#143 = ADVANCED_FACE ( 'NONE', ( #198, #54 ), #169, .T. ) ;
#144 = PERSON_AND_ORGANIZATION_ROLE ( 'creator' ) ;
#145 = PERSON_AND_ORGANIZATION_ROLE ( 'classification_officer' ) ;
#146 = APPROVAL ( #4, 'UNSPECIFIED' ) ;
#147 = COORDINATED_UNIVERSAL_TIME_OFFSET ( 1, 0, .AHEAD. ) ;
#148 = EDGE_LOOP ( 'NONE', ( #211 ) ) ;
#149 = PLANE ( 'NONE',  #199 ) ;
#150 = FACE_OUTER_BOUND ( 'NONE', #213, .T. ) ;
#151 = CARTESIAN_POINT ( 'NONE',  ( 1.316288464743861212E-13, -4.616918432785521081E-15, 37.69999999999999574 ) ) ;
#152 = APPLICATION_CONTEXT ( 'configuration controlled 3d designs of mechanical parts and assemblies' ) ;
#153 = CARTESIAN_POINT ( 'NONE',  ( 0.0000000000000000000, 0.0000000000000000000, 0.0000000000000000000 ) ) ;
#154 = DIRECTION ( 'NONE',  ( 3.491481338843133355E-15, -1.224646799147353207E-16, 1.000000000000000000 ) ) ;
#155 = CLOSED_SHELL ( 'NONE', ( #117, #42, #32 ) ) ;
#156 = PERSON_AND_ORGANIZATION ( #85, #218 ) ;
#157 = MECHANICAL_CONTEXT ( 'NONE', #152, 'mechanical' ) ;
#158 = DATE_AND_TIME ( #172, #195 ) ;
#159 = CARTESIAN_POINT ( 'NONE',  ( 1.316288464743861212E-13, 1.499999999999993117, 37.69999999999999574 ) ) ;
#160 = MANIFOLD_SOLID_BREP ( 'Corps-Déplacer/Copier1[1]', #133 ) ;
#161 = SECURITY_CLASSIFICATION_LEVEL ( 'unclassified' ) ;
#162 = ORIENTED_EDGE ( 'NONE', *, *, #29, .F. ) ;
#163 = CIRCLE ( 'NONE', #188, 1.199999999999997957 ) ;
#164 = APPROVAL_ROLE ( '' ) ;
#165 = AXIS2_PLACEMENT_3D ( 'NONE', #65, #41, #102 ) ;
#166 = DIRECTION ( 'NONE',  ( 3.491481338843133355E-15, -1.224646799147353207E-16, 1.000000000000000000 ) ) ;
#167 = DIRECTION ( 'NONE',  ( 0.0000000000000000000, 1.000000000000000000, 0.0000000000000000000 ) ) ;
#168 = PLANE ( 'NONE',  #223 ) ;
#169 = CYLINDRICAL_SURFACE ( 'NONE', #204, 1.499999999999995781 ) ;
#170 = DIRECTION ( 'NONE',  ( 0.0000000000000000000, -1.000000000000000000, 0.0000000000000000000 ) ) ;
#171 = DIRECTION ( 'NONE',  ( 3.491481338843133355E-15, -1.227517819005651059E-16, 1.000000000000000000 ) ) ;
#172 = CALENDAR_DATE ( 2021, 1, 11 ) ;
#173 = PERSON_AND_ORGANIZATION ( #85, #218 ) ;
#174 = EDGE_LOOP ( 'NONE', ( #162 ) ) ;
#175 = PRODUCT ( '57209', '57209', '', ( #157 ) ) ;
#176 = CC_DESIGN_PERSON_AND_ORGANIZATION_ASSIGNMENT ( #73, #145, ( #201 ) ) ;
#177 = EDGE_LOOP ( 'NONE', ( #113 ) ) ;
#178 = ADVANCED_FACE ( 'NONE', ( #55, #115 ), #58, .F. ) ;
#179 = EDGE_LOOP ( 'NONE', ( #63 ) ) ;
#180 = CARTESIAN_POINT ( 'NONE',  ( 2.967723941059915833E-14, -3.805181495189888645E-16, 8.499899191909301877 ) ) ;
#181 = DIRECTION ( 'NONE',  ( -3.491481338843133355E-15, 1.224646799147353207E-16, -1.000000000000000000 ) ) ;
#182 = CC_DESIGN_PERSON_AND_ORGANIZATION_ASSIGNMENT ( #123, #88, ( #175 ) ) ;
#183 = FACE_OUTER_BOUND ( 'NONE', #120, .T. ) ;
#184 = CIRCLE ( 'NONE', #114, 0.8749999999999996669 ) ;
#185 = DIRECTION ( 'NONE',  ( 3.491481338843133355E-15, -1.227517819005651059E-16, 1.000000000000000000 ) ) ;
#186 = DIRECTION ( 'NONE',  ( 0.0000000000000000000, -1.000000000000000000, 0.0000000000000000000 ) ) ;
#187 = APPROVAL_ROLE ( '' ) ;
#188 = AXIS2_PLACEMENT_3D ( 'NONE', #82, #12, #34 ) ;
#189 = APPROVAL_PERSON_ORGANIZATION ( #173, #146, #164 ) ;
#190 = VERTEX_POINT ( 'NONE', #159 ) ;
#191 =( GEOMETRIC_REPRESENTATION_CONTEXT ( 3 ) GLOBAL_UNCERTAINTY_ASSIGNED_CONTEXT ( ( #47 ) ) GLOBAL_UNIT_ASSIGNED_CONTEXT ( ( #121, #71, #141 ) ) REPRESENTATION_CONTEXT ( 'NONE', 'WORKASPACE' ) );
#192 = APPROVAL_STATUS ( 'not_yet_approved' ) ;
#193 = CC_DESIGN_PERSON_AND_ORGANIZATION_ASSIGNMENT ( #205, #21, ( #105 ) ) ;
#194 = EDGE_LOOP ( 'NONE', ( #26 ) ) ;
#195 = LOCAL_TIME ( 13, 23, 33.00000000000000000, #37 ) ;
#196 = CARTESIAN_POINT ( 'NONE',  ( -6.413803915257455362E-31, 2.249659577954771652E-32, -1.836986451539392583E-16 ) ) ;
#197 = FACE_OUTER_BOUND ( 'NONE', #96, .T. ) ;
#198 = FACE_OUTER_BOUND ( 'NONE', #22, .T. ) ;
#199 = AXIS2_PLACEMENT_3D ( 'NONE', #30, #134, #116 ) ;
#200 = FACE_OUTER_BOUND ( 'NONE', #52, .T. ) ;
#201 = SECURITY_CLASSIFICATION ( '', '', #161 ) ;
#202 = VERTEX_POINT ( 'NONE', #106 ) ;
#203 = CC_DESIGN_PERSON_AND_ORGANIZATION_ASSIGNMENT ( #129, #62, ( #40 ) ) ;
#204 = AXIS2_PLACEMENT_3D ( 'NONE', #153, #137, #68 ) ;
#205 = PERSON_AND_ORGANIZATION ( #85, #218 ) ;
#206 = APPROVAL_ROLE ( '' ) ;
#207 = CALENDAR_DATE ( 2021, 1, 11 ) ;
#208 = ORIENTED_EDGE ( 'NONE', *, *, #60, .T. ) ;
#209 = CIRCLE ( 'NONE', #18, 1.499999999999997558 ) ;
#210 = PERSON_AND_ORGANIZATION ( #85, #218 ) ;
#211 = ORIENTED_EDGE ( 'NONE', *, *, #90, .F. ) ;
#212 = APPLICATION_CONTEXT ( 'configuration controlled 3d designs of mechanical parts and assemblies' ) ;
#213 = EDGE_LOOP ( 'NONE', ( #112 ) ) ;
#214 = CARTESIAN_POINT ( 'NONE',  ( 1.885399922975292327E-14, 1.124819836996387458E-32, 5.400000000000000355 ) ) ;
#215 = DIRECTION ( 'NONE',  ( 0.0000000000000000000, 1.000000000000000000, 0.0000000000000000000 ) ) ;
#216 = PLANE ( 'NONE',  #104 ) ;
#217 = DIRECTION ( 'NONE',  ( -4.275831445896958607E-31, -1.000000000000000000, -1.224646799147353207E-16 ) ) ;
#218 = ORGANIZATION ( 'UNSPECIFIED', 'UNSPECIFIED', '' ) ;
#219 = DIRECTION ( 'NONE',  ( 4.275831445896958607E-31, 1.000000000000000000, 1.224646799147353207E-16 ) ) ;
#220 = DIRECTION ( 'NONE',  ( -4.285855558155654155E-31, -1.000000000000000000, -1.227517819005651059E-16 ) ) ;
#221 = EDGE_CURVE ( 'NONE', #84, #84, #43, .T. ) ;
#222 = CARTESIAN_POINT ( 'NONE',  ( 1.885399922975291696E-14, -0.8750000000000003331, 5.399999999999998579 ) ) ;
#223 = AXIS2_PLACEMENT_3D ( 'NONE', #214, #154, #79 ) ;
ENDSEC;
END-ISO-10303-21;
