ISO-10303-21;
HEADER;
FILE_DESCRIPTION (( 'STEP AP203' ),
    '1' );
FILE_NAME ('57208.step',
    '2021-11-01T12:23:33',
    ( '' ),
    ( '' ),
    'SwSTEP 2.0',
    'SolidWorks 2019',
    '' );
FILE_SCHEMA (( 'CONFIG_CONTROL_DESIGN' ));
ENDSEC;

DATA;
#1 = CARTESIAN_POINT ( 'NONE',  ( 1.571166602479410010E-14, 1.124819836996387458E-32, 4.500000000000000000 ) ) ;
#2 = CLOSED_SHELL ( 'NONE', ( #213, #106, #11, #174, #42 ) ) ;
#3 = LOCAL_TIME ( 13, 23, 33.00000000000000000, #43 ) ;
#4 = DIRECTION ( 'NONE',  ( 3.491481338843133355E-15, -1.227517819005651059E-16, 1.000000000000000000 ) ) ;
#5 = CARTESIAN_POINT ( 'NONE',  ( 1.571166602479409694E-14, -0.7500000000000000000, 4.499999999999999112 ) ) ;
#6 = CIRCLE ( 'NONE', #136, 1.499999999999997558 ) ;
#7 = ADVANCED_FACE ( 'NONE', ( #220, #155 ), #72, .T. ) ;
#8 = PERSON_AND_ORGANIZATION ( #199, #45 ) ;
#9 = CC_DESIGN_PERSON_AND_ORGANIZATION_ASSIGNMENT ( #133, #214, ( #134 ) ) ;
#10 =( NAMED_UNIT ( * ) SI_UNIT ( $, .STERADIAN. ) SOLID_ANGLE_UNIT ( ) );
#11 = ADVANCED_FACE ( 'NONE', ( #120 ), #121, .F. ) ;
#12 = PERSON_AND_ORGANIZATION ( #199, #45 ) ;
#13 = ORIENTED_EDGE ( 'NONE', *, *, #171, .F. ) ;
#14 = PRODUCT ( '57208', '57208', '', ( #66 ) ) ;
#15 = EDGE_LOOP ( 'NONE', ( #83 ) ) ;
#16 = EDGE_LOOP ( 'NONE', ( #206 ) ) ;
#17 = CARTESIAN_POINT ( 'NONE',  ( -3.214391668616738208E-31, -1.124808268304439854E-32, -9.206383642542378009E-17 ) ) ;
#18 = FACE_OUTER_BOUND ( 'NONE', #170, .T. ) ;
#19 = CARTESIAN_POINT ( 'NONE',  ( 1.326762908760390423E-13, -4.653657836759941941E-15, 38.00000000000000000 ) ) ;
#20 = DIRECTION ( 'NONE',  ( 0.0000000000000000000, -1.000000000000000000, 0.0000000000000000000 ) ) ;
#21 = CONICAL_SURFACE ( 'NONE', #166, 1.199999999999997957, 0.7853981633974450594 ) ;
#22 = APPROVAL_PERSON_ORGANIZATION ( #12, #182, #71 ) ;
#23 = PERSON_AND_ORGANIZATION ( #199, #45 ) ;
#24 = DATE_AND_TIME ( #168, #3 ) ;
#25 = PRODUCT_DEFINITION_SHAPE ( 'NONE', 'NONE',  #101 ) ;
#26 = CIRCLE ( 'NONE', #57, 1.199999999999997957 ) ;
#27 = PRODUCT_RELATED_PRODUCT_CATEGORY ( 'detail', '', ( #14 ) ) ;
#28 = APPROVAL_ROLE ( '' ) ;
#29 = DIRECTION ( 'NONE',  ( 3.491481338843133355E-15, -1.227517819005651059E-16, 1.000000000000000000 ) ) ;
#30 = AXIS2_PLACEMENT_3D ( 'NONE', #178, #221, #20 ) ;
#31 = ORIENTED_EDGE ( 'NONE', *, *, #126, .F. ) ;
#32 = ADVANCED_FACE ( 'NONE', ( #177 ), #146, .F. ) ;
#33 = AXIS2_PLACEMENT_3D ( 'NONE', #17, #211, #38 ) ;
#34 = SECURITY_CLASSIFICATION ( '', '', #64 ) ;
#35 = ORIENTED_EDGE ( 'NONE', *, *, #92, .F. ) ;
#36 = CARTESIAN_POINT ( 'NONE',  ( 0.0000000000000000000, 0.0000000000000000000, 0.0000000000000000000 ) ) ;
#37 = VERTEX_POINT ( 'NONE', #87 ) ;
#38 = DIRECTION ( 'NONE',  ( -4.285855558155652404E-31, -1.000000000000000000, -1.227517819005651059E-16 ) ) ;
#39 = APPROVAL_PERSON_ORGANIZATION ( #82, #203, #152 ) ;
#40 = CARTESIAN_POINT ( 'NONE',  ( 1.326762908760390423E-13, 8.998558695971062171E-33, 38.00000000000000000 ) ) ;
#41 = EDGE_CURVE ( 'NONE', #127, #127, #202, .T. ) ;
#42 = ADVANCED_FACE ( 'NONE', ( #161 ), #91, .F. ) ;
#43 = COORDINATED_UNIVERSAL_TIME_OFFSET ( 1, 0, .AHEAD. ) ;
#44 = PERSON_AND_ORGANIZATION_ROLE ( 'classification_officer' ) ;
#45 = ORGANIZATION ( 'UNSPECIFIED', 'UNSPECIFIED', '' ) ;
#46 = CALENDAR_DATE ( 2021, 1, 11 ) ;
#47 = CALENDAR_DATE ( 2021, 1, 11 ) ;
#48 = CARTESIAN_POINT ( 'NONE',  ( -6.413731847436034514E-31, 0.0000000000000000000, -1.836965810494968570E-16 ) ) ;
#49 = ORIENTED_EDGE ( 'NONE', *, *, #41, .F. ) ;
#50 = LOCAL_TIME ( 13, 23, 33.00000000000000000, #200 ) ;
#51 = ORIENTED_EDGE ( 'NONE', *, *, #92, .T. ) ;
#52 = EDGE_LOOP ( 'NONE', ( #13 ) ) ;
#53 = EDGE_LOOP ( 'NONE', ( #154 ) ) ;
#54 = DIRECTION ( 'NONE',  ( -3.491481338843133355E-15, 1.224646799147353207E-16, -1.000000000000000000 ) ) ;
#55 = DIRECTION ( 'NONE',  ( 4.275831445896958607E-31, 1.000000000000000000, 1.224646799147353207E-16 ) ) ;
#56 = FACE_OUTER_BOUND ( 'NONE', #218, .T. ) ;
#57 = AXIS2_PLACEMENT_3D ( 'NONE', #19, #125, #208 ) ;
#58 = DIRECTION ( 'NONE',  ( 3.491481338843133355E-15, -1.227517819005651059E-16, 1.000000000000000000 ) ) ;
#59 = AXIS2_PLACEMENT_3D ( 'NONE', #36, #89, #55 ) ;
#60 = CARTESIAN_POINT ( 'NONE',  ( -6.413803915257455362E-31, 2.249659577954771652E-32, -1.836986451539392583E-16 ) ) ;
#61 = CARTESIAN_POINT ( 'NONE',  ( 1.326762908760390423E-13, 1.199999999999993294, 38.00000000000000000 ) ) ;
#62 = DATE_AND_TIME ( #164, #63 ) ;
#63 = LOCAL_TIME ( 13, 23, 33.00000000000000000, #80 ) ;
#64 = SECURITY_CLASSIFICATION_LEVEL ( 'unclassified' ) ;
#65 = DESIGN_CONTEXT ( 'detailed design', #103, 'design' ) ;
#66 = MECHANICAL_CONTEXT ( 'NONE', #118, 'mechanical' ) ;
#67 = CIRCLE ( 'NONE', #33, 0.7499999999999993339 ) ;
#68 = CC_DESIGN_PERSON_AND_ORGANIZATION_ASSIGNMENT ( #23, #147, ( #14 ) ) ;
#69 = AXIS2_PLACEMENT_3D ( 'NONE', #175, #76, #144 ) ;
#70 = CC_DESIGN_APPROVAL ( #182, ( #34 ) ) ;
#71 = APPROVAL_ROLE ( '' ) ;
#72 = CYLINDRICAL_SURFACE ( 'NONE', #100, 0.7499999999999993339 ) ;
#73 = CC_DESIGN_DATE_AND_TIME_ASSIGNMENT ( #24, #96, ( #101 ) ) ;
#74 = DIRECTION ( 'NONE',  ( 4.275831445896958607E-31, 1.000000000000000000, 1.224646799147353207E-16 ) ) ;
#75 = DIRECTION ( 'NONE',  ( -3.491481338843133355E-15, 1.224646799147353207E-16, -1.000000000000000000 ) ) ;
#76 = DIRECTION ( 'NONE',  ( 3.491481338843133355E-15, -1.224646799147353207E-16, 1.000000000000000000 ) ) ;
#77 = DIRECTION ( 'NONE',  ( -3.491481338843133355E-15, 1.227517819005651059E-16, -1.000000000000000000 ) ) ;
#78 = CC_DESIGN_PERSON_AND_ORGANIZATION_ASSIGNMENT ( #132, #44, ( #34 ) ) ;
#79 = DIRECTION ( 'NONE',  ( -3.491481338843133355E-15, 1.224646799147353207E-16, -1.000000000000000000 ) ) ;
#80 = COORDINATED_UNIVERSAL_TIME_OFFSET ( 1, 0, .AHEAD. ) ;
#81 = PERSON_AND_ORGANIZATION_ROLE ( 'creator' ) ;
#82 = PERSON_AND_ORGANIZATION ( #199, #45 ) ;
#83 = ORIENTED_EDGE ( 'NONE', *, *, #148, .T. ) ;
#84 = APPROVAL_DATE_TIME ( #119, #182 ) ;
#85 = ORIENTED_EDGE ( 'NONE', *, *, #158, .T. ) ;
#86 = DIRECTION ( 'NONE',  ( 0.0000000000000000000, 1.000000000000000000, 0.0000000000000000000 ) ) ;
#87 = CARTESIAN_POINT ( 'NONE',  ( 1.316288464743861212E-13, 1.499999999999993117, 37.69999999999999574 ) ) ;
#88 = DIRECTION ( 'NONE',  ( 3.491481338843133355E-15, -1.224646799147353207E-16, 1.000000000000000000 ) ) ;
#89 = DIRECTION ( 'NONE',  ( -3.491481338843133355E-15, 1.224646799147353207E-16, -1.000000000000000000 ) ) ;
#90 = CLOSED_SHELL ( 'NONE', ( #145, #7, #32 ) ) ;
#91 = PLANE ( 'NONE',  #108 ) ;
#92 = EDGE_CURVE ( 'NONE', #192, #192, #67, .T. ) ;
#93 = APPLICATION_PROTOCOL_DEFINITION ( 'international standard', 'config_control_design', 1994, #103 ) ;
#94 = CC_DESIGN_PERSON_AND_ORGANIZATION_ASSIGNMENT ( #115, #212, ( #101 ) ) ;
#95 = APPLICATION_PROTOCOL_DEFINITION ( 'international standard', 'config_control_design', 1994, #118 ) ;
#96 = DATE_TIME_ROLE ( 'creation_date' ) ;
#97 = AXIS2_PLACEMENT_3D ( 'NONE', #142, #58, #163 ) ;
#98 = CC_DESIGN_APPROVAL ( #203, ( #134 ) ) ;
#99 = DIRECTION ( 'NONE',  ( 1.000000000000000000, 0.0000000000000000000, 0.0000000000000000000 ) ) ;
#100 = AXIS2_PLACEMENT_3D ( 'NONE', #48, #29, #204 ) ;
#101 = PRODUCT_DEFINITION ( 'UNKNOWN', '', #134, #65 ) ;
#102 = EDGE_LOOP ( 'NONE', ( #138 ) ) ;
#103 = APPLICATION_CONTEXT ( 'configuration controlled 3d designs of mechanical parts and assemblies' ) ;
#104 = CC_DESIGN_APPROVAL ( #153, ( #101 ) ) ;
#105 = DIRECTION ( 'NONE',  ( 3.491481338843133355E-15, -1.224646799147353207E-16, 1.000000000000000000 ) ) ;
#106 = ADVANCED_FACE ( 'NONE', ( #107, #162 ), #21, .T. ) ;
#107 = FACE_OUTER_BOUND ( 'NONE', #187, .T. ) ;
#108 = AXIS2_PLACEMENT_3D ( 'NONE', #1, #105, #113 ) ;
#109 = APPROVAL_PERSON_ORGANIZATION ( #116, #153, #28 ) ;
#110 = CARTESIAN_POINT ( 'NONE',  ( 2.751963704791718294E-14, -4.151388316452689037E-16, 7.881937314617162293 ) ) ;
#111 = CC_DESIGN_PERSON_AND_ORGANIZATION_ASSIGNMENT ( #8, #81, ( #134 ) ) ;
#112 = FACE_OUTER_BOUND ( 'NONE', #15, .T. ) ;
#113 = DIRECTION ( 'NONE',  ( -4.275831445896958607E-31, -1.000000000000000000, -1.224646799147353207E-16 ) ) ;
#114 = DIRECTION ( 'NONE',  ( 0.0000000000000000000, 0.0000000000000000000, 1.000000000000000000 ) ) ;
#115 = PERSON_AND_ORGANIZATION ( #199, #45 ) ;
#116 = PERSON_AND_ORGANIZATION ( #199, #45 ) ;
#117 = DATE_AND_TIME ( #46, #50 ) ;
#118 = APPLICATION_CONTEXT ( 'configuration controlled 3d designs of mechanical parts and assemblies' ) ;
#119 = DATE_AND_TIME ( #47, #159 ) ;
#120 = FACE_OUTER_BOUND ( 'NONE', #52, .T. ) ;
#121 = PLANE ( 'NONE',  #194 ) ;
#122 = ORIENTED_EDGE ( 'NONE', *, *, #41, .T. ) ;
#123 = TOROIDAL_SURFACE ( 'NONE', #184, 8.749999999999998224, 8.000000000000000000 ) ;
#124 = LOCAL_TIME ( 13, 23, 33.00000000000000000, #183 ) ;
#125 = DIRECTION ( 'NONE',  ( -3.491481338843133355E-15, 1.224646799147353207E-16, -1.000000000000000000 ) ) ;
#126 = EDGE_CURVE ( 'NONE', #37, #37, #6, .T. ) ;
#127 = VERTEX_POINT ( 'NONE', #128 ) ;
#128 = CARTESIAN_POINT ( 'NONE',  ( 2.751963704791718294E-14, 1.499999999999995337, 7.881937314617162293 ) ) ;
#129 = CARTESIAN_POINT ( 'NONE',  ( 1.571166602479409694E-14, 0.0000000000000000000, 4.499999999999999112 ) ) ;
#130 = DIRECTION ( 'NONE',  ( -4.275831445896958607E-31, -1.000000000000000000, -1.224646799147353207E-16 ) ) ;
#131 = DATE_AND_TIME ( #215, #124 ) ;
#132 = PERSON_AND_ORGANIZATION ( #199, #45 ) ;
#133 = PERSON_AND_ORGANIZATION ( #199, #45 ) ;
#134 = PRODUCT_DEFINITION_FORMATION_WITH_SPECIFIED_SOURCE ( 'ANY', '', #14, .NOT_KNOWN. ) ;
#135 = DATE_TIME_ROLE ( 'classification_date' ) ;
#136 = AXIS2_PLACEMENT_3D ( 'NONE', #210, #75, #86 ) ;
#137 = COORDINATED_UNIVERSAL_TIME_OFFSET ( 1, 0, .AHEAD. ) ;
#138 = ORIENTED_EDGE ( 'NONE', *, *, #171, .T. ) ;
#139 = CC_DESIGN_DATE_AND_TIME_ASSIGNMENT ( #117, #135, ( #34 ) ) ;
#140 = ADVANCED_BREP_SHAPE_REPRESENTATION ( '57208', ( #217, #223, #149 ), #167 ) ;
#141 = CC_DESIGN_SECURITY_CLASSIFICATION ( #34, ( #134 ) ) ;
#142 = CARTESIAN_POINT ( 'NONE',  ( 1.571166602479409694E-14, -5.523830185525428531E-16, 4.499999999999999112 ) ) ;
#143 = DIRECTION ( 'NONE',  ( 0.0000000000000000000, 1.000000000000000000, 0.0000000000000000000 ) ) ;
#144 = DIRECTION ( 'NONE',  ( -4.275831445896958607E-31, -1.000000000000000000, -1.224646799147353207E-16 ) ) ;
#145 = ADVANCED_FACE ( 'NONE', ( #112 ), #157, .T. ) ;
#146 = PLANE ( 'NONE',  #176 ) ;
#147 = PERSON_AND_ORGANIZATION_ROLE ( 'design_owner' ) ;
#148 = EDGE_CURVE ( 'NONE', #222, #222, #190, .T. ) ;
#149 = AXIS2_PLACEMENT_3D ( 'NONE', #197, #114, #99 ) ;
#150 =( NAMED_UNIT ( * ) PLANE_ANGLE_UNIT ( ) SI_UNIT ( $, .RADIAN. ) );
#151 = UNCERTAINTY_MEASURE_WITH_UNIT (LENGTH_MEASURE( 1.000000000000000082E-05 ), #198, 'distance_accuracy_value', 'NONE');
#152 = APPROVAL_ROLE ( '' ) ;
#153 = APPROVAL ( #185, 'UNSPECIFIED' ) ;
#154 = ORIENTED_EDGE ( 'NONE', *, *, #126, .T. ) ;
#155 = FACE_OUTER_BOUND ( 'NONE', #173, .T. ) ;
#156 = EDGE_LOOP ( 'NONE', ( #51 ) ) ;
#157 = PLANE ( 'NONE',  #69 ) ;
#158 = EDGE_CURVE ( 'NONE', #165, #165, #216, .T. ) ;
#159 = LOCAL_TIME ( 13, 23, 33.00000000000000000, #137 ) ;
#160 = FACE_OUTER_BOUND ( 'NONE', #53, .T. ) ;
#161 = FACE_OUTER_BOUND ( 'NONE', #16, .T. ) ;
#162 = FACE_BOUND ( 'NONE', #102, .T. ) ;
#163 = DIRECTION ( 'NONE',  ( 0.0000000000000000000, -1.000000000000000000, 0.0000000000000000000 ) ) ;
#164 = CALENDAR_DATE ( 2021, 1, 11 ) ;
#165 = VERTEX_POINT ( 'NONE', #5 ) ;
#166 = AXIS2_PLACEMENT_3D ( 'NONE', #179, #79, #143 ) ;
#167 =( GEOMETRIC_REPRESENTATION_CONTEXT ( 3 ) GLOBAL_UNCERTAINTY_ASSIGNED_CONTEXT ( ( #151 ) ) GLOBAL_UNIT_ASSIGNED_CONTEXT ( ( #198, #150, #10 ) ) REPRESENTATION_CONTEXT ( 'NONE', 'WORKASPACE' ) );
#168 = CALENDAR_DATE ( 2021, 1, 11 ) ;
#169 = APPROVAL_STATUS ( 'not_yet_approved' ) ;
#170 = EDGE_LOOP ( 'NONE', ( #85 ) ) ;
#171 = EDGE_CURVE ( 'NONE', #180, #180, #26, .T. ) ;
#172 = EDGE_LOOP ( 'NONE', ( #35 ) ) ;
#173 = EDGE_LOOP ( 'NONE', ( #205 ) ) ;
#174 = ADVANCED_FACE ( 'NONE', ( #18, #191 ), #123, .F. ) ;
#175 = CARTESIAN_POINT ( 'NONE',  ( 1.571166602479410010E-14, 1.124819836996387458E-32, 4.500000000000000000 ) ) ;
#176 = AXIS2_PLACEMENT_3D ( 'NONE', #60, #88, #130 ) ;
#177 = FACE_OUTER_BOUND ( 'NONE', #172, .T. ) ;
#178 = CARTESIAN_POINT ( 'NONE',  ( 1.571166602479409694E-14, -5.523830185525428531E-16, 4.499999999999999112 ) ) ;
#179 = CARTESIAN_POINT ( 'NONE',  ( 1.326762908760390423E-13, -4.653657836759941941E-15, 38.00000000000000000 ) ) ;
#180 = VERTEX_POINT ( 'NONE', #61 ) ;
#181 = APPROVAL_DATE_TIME ( #131, #203 ) ;
#182 = APPROVAL ( #201, 'UNSPECIFIED' ) ;
#183 = COORDINATED_UNIVERSAL_TIME_OFFSET ( 1, 0, .AHEAD. ) ;
#184 = AXIS2_PLACEMENT_3D ( 'NONE', #129, #4, #207 ) ;
#185 = APPROVAL_STATUS ( 'not_yet_approved' ) ;
#186 = APPROVAL_DATE_TIME ( #62, #153 ) ;
#187 = EDGE_LOOP ( 'NONE', ( #31 ) ) ;
#188 = SHAPE_DEFINITION_REPRESENTATION ( #25, #140 ) ;
#189 = EDGE_LOOP ( 'NONE', ( #122 ) ) ;
#190 = CIRCLE ( 'NONE', #30, 0.7499999999999994449 ) ;
#191 = FACE_OUTER_BOUND ( 'NONE', #189, .T. ) ;
#192 = VERTEX_POINT ( 'NONE', #209 ) ;
#193 = CARTESIAN_POINT ( 'NONE',  ( 1.571166602479409694E-14, -0.7500000000000000000, 4.499999999999999112 ) ) ;
#194 = AXIS2_PLACEMENT_3D ( 'NONE', #40, #54, #74 ) ;
#195 = CYLINDRICAL_SURFACE ( 'NONE', #59, 1.499999999999995781 ) ;
#196 = DIRECTION ( 'NONE',  ( 0.0000000000000000000, 1.000000000000000000, 0.0000000000000000000 ) ) ;
#197 = CARTESIAN_POINT ( 'NONE',  ( 0.0000000000000000000, 0.0000000000000000000, 0.0000000000000000000 ) ) ;
#198 =( LENGTH_UNIT ( ) NAMED_UNIT ( * ) SI_UNIT ( .MILLI., .METRE. ) );
#199 = PERSON ( 'UNSPECIFIED', 'UNSPECIFIED', 'UNSPECIFIED', ('UNSPECIFIED'), ('UNSPECIFIED'), ('UNSPECIFIED') ) ;
#200 = COORDINATED_UNIVERSAL_TIME_OFFSET ( 1, 0, .AHEAD. ) ;
#201 = APPROVAL_STATUS ( 'not_yet_approved' ) ;
#202 = CIRCLE ( 'NONE', #219, 1.499999999999995781 ) ;
#203 = APPROVAL ( #169, 'UNSPECIFIED' ) ;
#204 = DIRECTION ( 'NONE',  ( -4.285855558155652404E-31, -1.000000000000000000, -1.227517819005651552E-16 ) ) ;
#205 = ORIENTED_EDGE ( 'NONE', *, *, #148, .F. ) ;
#206 = ORIENTED_EDGE ( 'NONE', *, *, #158, .F. ) ;
#207 = DIRECTION ( 'NONE',  ( -4.349271186581347984E-31, -1.000000000000000000, -1.227517819005651059E-16 ) ) ;
#208 = DIRECTION ( 'NONE',  ( 0.0000000000000000000, 1.000000000000000000, 0.0000000000000000000 ) ) ;
#209 = CARTESIAN_POINT ( 'NONE',  ( -6.428783337233474664E-31, -0.7499999999999993339, -1.841276728508475355E-16 ) ) ;
#210 = CARTESIAN_POINT ( 'NONE',  ( 1.316288464743861212E-13, -4.616918432785521081E-15, 37.69999999999999574 ) ) ;
#211 = DIRECTION ( 'NONE',  ( 3.491481338843133355E-15, -1.227517819005651059E-16, 1.000000000000000000 ) ) ;
#212 = PERSON_AND_ORGANIZATION_ROLE ( 'creator' ) ;
#213 = ADVANCED_FACE ( 'NONE', ( #160, #56 ), #195, .T. ) ;
#214 = PERSON_AND_ORGANIZATION_ROLE ( 'design_supplier' ) ;
#215 = CALENDAR_DATE ( 2021, 1, 11 ) ;
#216 = CIRCLE ( 'NONE', #97, 0.7499999999999994449 ) ;
#217 = MANIFOLD_SOLID_BREP ( 'Corps-Déplacer/Copier1[1]', #2 ) ;
#218 = EDGE_LOOP ( 'NONE', ( #49 ) ) ;
#219 = AXIS2_PLACEMENT_3D ( 'NONE', #110, #77, #196 ) ;
#220 = FACE_OUTER_BOUND ( 'NONE', #156, .T. ) ;
#221 = DIRECTION ( 'NONE',  ( 3.491481338843133355E-15, -1.227517819005651059E-16, 1.000000000000000000 ) ) ;
#222 = VERTEX_POINT ( 'NONE', #193 ) ;
#223 = MANIFOLD_SOLID_BREP ( 'Corps-Déplacer/Copier1[2]', #90 ) ;
ENDSEC;
END-ISO-10303-21;
