ISO-10303-21;
HEADER;
FILE_DESCRIPTION (( 'STEP AP203' ),
    '1' );
FILE_NAME ('57207.step',
    '2021-11-01T12:23:32',
    ( '' ),
    ( '' ),
    'SwSTEP 2.0',
    'SolidWorks 2019',
    '' );
FILE_SCHEMA (( 'CONFIG_CONTROL_DESIGN' ));
ENDSEC;

DATA;
#1 = COORDINATED_UNIVERSAL_TIME_OFFSET ( 1, 0, .AHEAD. ) ;
#2 = APPROVAL_PERSON_ORGANIZATION ( #204, #22, #31 ) ;
#3 = APPROVAL_ROLE ( '' ) ;
#4 = ADVANCED_FACE ( 'NONE', ( #26, #144 ), #209, .T. ) ;
#5 = CARTESIAN_POINT ( 'NONE',  ( 1.326762908760390423E-13, 8.998558695971062171E-33, 38.00000000000000000 ) ) ;
#6 = CARTESIAN_POINT ( 'NONE',  ( -6.413803915257455362E-31, 2.249659577954771652E-32, -1.836986451539392583E-16 ) ) ;
#7 = EDGE_LOOP ( 'NONE', ( #24 ) ) ;
#8 = DIRECTION ( 'NONE',  ( 3.491481338843133355E-15, -1.227517819005651059E-16, 1.000000000000000000 ) ) ;
#9 = FACE_OUTER_BOUND ( 'NONE', #140, .T. ) ;
#10 =( GEOMETRIC_REPRESENTATION_CONTEXT ( 3 ) GLOBAL_UNCERTAINTY_ASSIGNED_CONTEXT ( ( #158 ) ) GLOBAL_UNIT_ASSIGNED_CONTEXT ( ( #98, #63, #100 ) ) REPRESENTATION_CONTEXT ( 'NONE', 'WORKASPACE' ) );
#11 = FACE_OUTER_BOUND ( 'NONE', #164, .T. ) ;
#12 = ADVANCED_FACE ( 'NONE', ( #196 ), #128, .F. ) ;
#13 = DIRECTION ( 'NONE',  ( 0.0000000000000000000, -1.000000000000000000, 0.0000000000000000000 ) ) ;
#14 = CARTESIAN_POINT ( 'NONE',  ( 1.316288464743861212E-13, 1.499999999999993117, 37.69999999999999574 ) ) ;
#15 = DIRECTION ( 'NONE',  ( 0.0000000000000000000, 1.000000000000000000, 0.0000000000000000000 ) ) ;
#16 = APPROVAL_ROLE ( '' ) ;
#17 = COORDINATED_UNIVERSAL_TIME_OFFSET ( 1, 0, .AHEAD. ) ;
#18 = CALENDAR_DATE ( 2021, 1, 11 ) ;
#19 = CC_DESIGN_DATE_AND_TIME_ASSIGNMENT ( #138, #203, ( #56 ) ) ;
#20 = PERSON_AND_ORGANIZATION ( #61, #33 ) ;
#21 = APPLICATION_CONTEXT ( 'configuration controlled 3d designs of mechanical parts and assemblies' ) ;
#22 = APPROVAL ( #205, 'UNSPECIFIED' ) ;
#23 = CYLINDRICAL_SURFACE ( 'NONE', #125, 1.499999999999995781 ) ;
#24 = ORIENTED_EDGE ( 'NONE', *, *, #170, .F. ) ;
#25 = DIRECTION ( 'NONE',  ( 3.491481338843133355E-15, -1.224646799147353207E-16, 1.000000000000000000 ) ) ;
#26 = FACE_OUTER_BOUND ( 'NONE', #157, .T. ) ;
#27 = PERSON_AND_ORGANIZATION ( #61, #33 ) ;
#28 = DIRECTION ( 'NONE',  ( -3.491481338843133355E-15, 1.224646799147353207E-16, -1.000000000000000000 ) ) ;
#29 = FACE_BOUND ( 'NONE', #124, .T. ) ;
#30 = DIRECTION ( 'NONE',  ( 1.000000000000000000, 0.0000000000000000000, 0.0000000000000000000 ) ) ;
#31 = APPROVAL_ROLE ( '' ) ;
#32 = CIRCLE ( 'NONE', #67, 1.499999999999997558 ) ;
#33 = ORGANIZATION ( 'UNSPECIFIED', 'UNSPECIFIED', '' ) ;
#34 = SECURITY_CLASSIFICATION_LEVEL ( 'unclassified' ) ;
#35 = ADVANCED_FACE ( 'NONE', ( #127 ), #192, .F. ) ;
#36 = CIRCLE ( 'NONE', #42, 0.6249999999999992228 ) ;
#37 = ORIENTED_EDGE ( 'NONE', *, *, #170, .T. ) ;
#38 = CC_DESIGN_APPROVAL ( #22, ( #56 ) ) ;
#39 = DIRECTION ( 'NONE',  ( -4.275831445896958607E-31, -1.000000000000000000, -1.224646799147353207E-16 ) ) ;
#40 = DIRECTION ( 'NONE',  ( -3.491481338843133355E-15, 1.224646799147353207E-16, -1.000000000000000000 ) ) ;
#41 = CIRCLE ( 'NONE', #77, 0.6249999999999992228 ) ;
#42 = AXIS2_PLACEMENT_3D ( 'NONE', #59, #187, #13 ) ;
#43 = CC_DESIGN_PERSON_AND_ORGANIZATION_ASSIGNMENT ( #20, #137, ( #219 ) ) ;
#44 = DIRECTION ( 'NONE',  ( 0.0000000000000000000, 1.000000000000000000, 0.0000000000000000000 ) ) ;
#45 = CARTESIAN_POINT ( 'NONE',  ( 1.326762908760390423E-13, 1.199999999999993294, 38.00000000000000000 ) ) ;
#46 = CC_DESIGN_PERSON_AND_ORGANIZATION_ASSIGNMENT ( #62, #114, ( #200 ) ) ;
#47 = COORDINATED_UNIVERSAL_TIME_OFFSET ( 1, 0, .AHEAD. ) ;
#48 = DATE_AND_TIME ( #18, #190 ) ;
#49 = AXIS2_PLACEMENT_3D ( 'NONE', #117, #167, #15 ) ;
#50 = ORIENTED_EDGE ( 'NONE', *, *, #166, .T. ) ;
#51 = CC_DESIGN_PERSON_AND_ORGANIZATION_ASSIGNMENT ( #83, #173, ( #152 ) ) ;
#52 = CIRCLE ( 'NONE', #95, 0.6249999999999992228 ) ;
#53 = DIRECTION ( 'NONE',  ( -3.491481338843133355E-15, 1.224646799147353207E-16, -1.000000000000000000 ) ) ;
#54 = CARTESIAN_POINT ( 'NONE',  ( 1.361677722148821693E-14, 0.0000000000000000000, 3.899999999999999023 ) ) ;
#55 = DIRECTION ( 'NONE',  ( -4.285855558155653280E-31, -1.000000000000000000, -1.227517819005651305E-16 ) ) ;
#56 = SECURITY_CLASSIFICATION ( '', '', #34 ) ;
#57 = DIRECTION ( 'NONE',  ( -4.275831445896958607E-31, -1.000000000000000000, -1.224646799147353207E-16 ) ) ;
#58 = MANIFOLD_SOLID_BREP ( 'Corps-Déplacer/Copier1[1]', #185 ) ;
#59 = CARTESIAN_POINT ( 'NONE',  ( 1.361677722148821693E-14, -4.787319494122037009E-16, 3.899999999999999023 ) ) ;
#60 = CC_DESIGN_PERSON_AND_ORGANIZATION_ASSIGNMENT ( #71, #156, ( #56 ) ) ;
#61 = PERSON ( 'UNSPECIFIED', 'UNSPECIFIED', 'UNSPECIFIED', ('UNSPECIFIED'), ('UNSPECIFIED'), ('UNSPECIFIED') ) ;
#62 = PERSON_AND_ORGANIZATION ( #61, #33 ) ;
#63 =( NAMED_UNIT ( * ) PLANE_ANGLE_UNIT ( ) SI_UNIT ( $, .RADIAN. ) );
#64 = MECHANICAL_CONTEXT ( 'NONE', #21, 'mechanical' ) ;
#65 = AXIS2_PLACEMENT_3D ( 'NONE', #201, #188, #30 ) ;
#66 = CALENDAR_DATE ( 2021, 1, 11 ) ;
#67 = AXIS2_PLACEMENT_3D ( 'NONE', #199, #28, #44 ) ;
#68 = CC_DESIGN_APPROVAL ( #106, ( #219 ) ) ;
#69 = APPROVAL_DATE_TIME ( #48, #22 ) ;
#70 = ORIENTED_EDGE ( 'NONE', *, *, #176, .T. ) ;
#71 = PERSON_AND_ORGANIZATION ( #61, #33 ) ;
#72 = DIRECTION ( 'NONE',  ( 3.491481338843133355E-15, -1.224646799147353207E-16, 1.000000000000000000 ) ) ;
#73 = EDGE_CURVE ( 'NONE', #78, #78, #41, .T. ) ;
#74 = ORIENTED_EDGE ( 'NONE', *, *, #215, .T. ) ;
#75 = FACE_OUTER_BOUND ( 'NONE', #179, .T. ) ;
#76 = FACE_OUTER_BOUND ( 'NONE', #89, .T. ) ;
#77 = AXIS2_PLACEMENT_3D ( 'NONE', #195, #91, #162 ) ;
#78 = VERTEX_POINT ( 'NONE', #217 ) ;
#79 = VERTEX_POINT ( 'NONE', #45 ) ;
#80 = CARTESIAN_POINT ( 'NONE',  ( 1.326762908760390423E-13, -4.653657836759941941E-15, 38.00000000000000000 ) ) ;
#81 = CONICAL_SURFACE ( 'NONE', #149, 1.199999999999997957, 0.7853981633974450594 ) ;
#82 = ADVANCED_FACE ( 'NONE', ( #211, #113 ), #23, .T. ) ;
#83 = PERSON_AND_ORGANIZATION ( #61, #33 ) ;
#84 = AXIS2_PLACEMENT_3D ( 'NONE', #6, #25, #57 ) ;
#85 = PERSON_AND_ORGANIZATION ( #61, #33 ) ;
#86 = APPROVAL_DATE_TIME ( #207, #106 ) ;
#87 = CALENDAR_DATE ( 2021, 1, 11 ) ;
#88 = ORIENTED_EDGE ( 'NONE', *, *, #172, .T. ) ;
#89 = EDGE_LOOP ( 'NONE', ( #74 ) ) ;
#90 = CARTESIAN_POINT ( 'NONE',  ( 0.0000000000000000000, 0.0000000000000000000, 0.0000000000000000000 ) ) ;
#91 = DIRECTION ( 'NONE',  ( 3.491481338843133355E-15, -1.227517819005651059E-16, 1.000000000000000000 ) ) ;
#92 = ORIENTED_EDGE ( 'NONE', *, *, #166, .F. ) ;
#93 = APPROVAL ( #94, 'UNSPECIFIED' ) ;
#94 = APPROVAL_STATUS ( 'not_yet_approved' ) ;
#95 = AXIS2_PLACEMENT_3D ( 'NONE', #151, #169, #116 ) ;
#96 = CARTESIAN_POINT ( 'NONE',  ( 2.631846529996563124E-14, -4.465596958610346359E-16, 7.537908052713804707 ) ) ;
#97 = CARTESIAN_POINT ( 'NONE',  ( 1.361677722148822009E-14, 1.124819836996387869E-32, 3.899999999999999911 ) ) ;
#98 =( LENGTH_UNIT ( ) NAMED_UNIT ( * ) SI_UNIT ( .MILLI., .METRE. ) );
#99 = CIRCLE ( 'NONE', #154, 1.499999999999995781 ) ;
#100 =( NAMED_UNIT ( * ) SI_UNIT ( $, .STERADIAN. ) SOLID_ANGLE_UNIT ( ) );
#101 = AXIS2_PLACEMENT_3D ( 'NONE', #54, #8, #182 ) ;
#102 = DATE_AND_TIME ( #121, #145 ) ;
#103 = APPROVAL_DATE_TIME ( #222, #93 ) ;
#104 = ADVANCED_FACE ( 'NONE', ( #75 ), #130, .F. ) ;
#105 = CALENDAR_DATE ( 2021, 1, 11 ) ;
#106 = APPROVAL ( #191, 'UNSPECIFIED' ) ;
#107 = ORIENTED_EDGE ( 'NONE', *, *, #73, .F. ) ;
#108 = LOCAL_TIME ( 13, 23, 32.00000000000000000, #17 ) ;
#109 = DIRECTION ( 'NONE',  ( 4.275831445896958607E-31, 1.000000000000000000, 1.224646799147353207E-16 ) ) ;
#110 = DIRECTION ( 'NONE',  ( 4.275831445896958607E-31, 1.000000000000000000, 1.224646799147353207E-16 ) ) ;
#111 = EDGE_LOOP ( 'NONE', ( #50 ) ) ;
#112 = EDGE_LOOP ( 'NONE', ( #88 ) ) ;
#113 = FACE_OUTER_BOUND ( 'NONE', #206, .T. ) ;
#114 = PERSON_AND_ORGANIZATION_ROLE ( 'design_owner' ) ;
#115 = TOROIDAL_SURFACE ( 'NONE', #101, 8.624999999999998224, 8.000000000000000000 ) ;
#116 = DIRECTION ( 'NONE',  ( 0.0000000000000000000, -1.000000000000000000, 0.0000000000000000000 ) ) ;
#117 = CARTESIAN_POINT ( 'NONE',  ( 1.326762908760390423E-13, -4.653657836759941941E-15, 38.00000000000000000 ) ) ;
#118 = DIRECTION ( 'NONE',  ( -3.491481338843133355E-15, 1.227517819005651059E-16, -1.000000000000000000 ) ) ;
#119 = CC_DESIGN_SECURITY_CLASSIFICATION ( #56, ( #219 ) ) ;
#120 = SHAPE_DEFINITION_REPRESENTATION ( #220, #143 ) ;
#121 = CALENDAR_DATE ( 2021, 1, 11 ) ;
#122 = APPROVAL_PERSON_ORGANIZATION ( #189, #106, #16 ) ;
#123 = ADVANCED_FACE ( 'NONE', ( #9, #76 ), #115, .F. ) ;
#124 = EDGE_LOOP ( 'NONE', ( #37 ) ) ;
#125 = AXIS2_PLACEMENT_3D ( 'NONE', #90, #53, #109 ) ;
#126 = CC_DESIGN_APPROVAL ( #93, ( #152 ) ) ;
#127 = FACE_OUTER_BOUND ( 'NONE', #7, .T. ) ;
#128 = PLANE ( 'NONE',  #84 ) ;
#129 = APPROVAL_PERSON_ORGANIZATION ( #27, #93, #3 ) ;
#130 = PLANE ( 'NONE',  #218 ) ;
#131 = DIRECTION ( 'NONE',  ( 3.491481338843133355E-15, -1.224646799147353207E-16, 1.000000000000000000 ) ) ;
#132 = AXIS2_PLACEMENT_3D ( 'NONE', #97, #131, #198 ) ;
#133 = VERTEX_POINT ( 'NONE', #216 ) ;
#134 = DESIGN_CONTEXT ( 'detailed design', #213, 'design' ) ;
#135 = CARTESIAN_POINT ( 'NONE',  ( 1.361677722148821693E-14, -0.6249999999999996669, 3.899999999999999023 ) ) ;
#136 = MANIFOLD_SOLID_BREP ( 'Corps-Déplacer/Copier1[2]', #165 ) ;
#137 = PERSON_AND_ORGANIZATION_ROLE ( 'creator' ) ;
#138 = DATE_AND_TIME ( #87, #175 ) ;
#139 = ADVANCED_FACE ( 'NONE', ( #146 ), #160, .T. ) ;
#140 = EDGE_LOOP ( 'NONE', ( #70 ) ) ;
#141 = CIRCLE ( 'NONE', #49, 1.199999999999997957 ) ;
#142 = EDGE_LOOP ( 'NONE', ( #107 ) ) ;
#143 = ADVANCED_BREP_SHAPE_REPRESENTATION ( '57207', ( #58, #136, #65 ), #10 ) ;
#144 = FACE_OUTER_BOUND ( 'NONE', #212, .T. ) ;
#145 = LOCAL_TIME ( 13, 23, 32.00000000000000000, #174 ) ;
#146 = FACE_OUTER_BOUND ( 'NONE', #112, .T. ) ;
#147 = VERTEX_POINT ( 'NONE', #14 ) ;
#148 = DIRECTION ( 'NONE',  ( 0.0000000000000000000, 1.000000000000000000, 0.0000000000000000000 ) ) ;
#149 = AXIS2_PLACEMENT_3D ( 'NONE', #80, #40, #186 ) ;
#150 = VERTEX_POINT ( 'NONE', #171 ) ;
#151 = CARTESIAN_POINT ( 'NONE',  ( 1.361677722148821693E-14, -4.787319494122037009E-16, 3.899999999999999023 ) ) ;
#152 = PRODUCT_DEFINITION ( 'UNKNOWN', '', #219, #134 ) ;
#153 = DATE_TIME_ROLE ( 'creation_date' ) ;
#154 = AXIS2_PLACEMENT_3D ( 'NONE', #96, #118, #148 ) ;
#155 = PERSON_AND_ORGANIZATION_ROLE ( 'design_supplier' ) ;
#156 = PERSON_AND_ORGANIZATION_ROLE ( 'classification_officer' ) ;
#157 = EDGE_LOOP ( 'NONE', ( #194 ) ) ;
#158 = UNCERTAINTY_MEASURE_WITH_UNIT (LENGTH_MEASURE( 1.000000000000000082E-05 ), #98, 'distance_accuracy_value', 'NONE');
#159 = CARTESIAN_POINT ( 'NONE',  ( -6.413731847436034514E-31, 0.0000000000000000000, -1.836965810494968570E-16 ) ) ;
#160 = PLANE ( 'NONE',  #132 ) ;
#161 = ORIENTED_EDGE ( 'NONE', *, *, #172, .F. ) ;
#162 = DIRECTION ( 'NONE',  ( -4.285855558155653280E-31, -1.000000000000000000, -1.227517819005651305E-16 ) ) ;
#163 = PRODUCT_RELATED_PRODUCT_CATEGORY ( 'detail', '', ( #200 ) ) ;
#164 = EDGE_LOOP ( 'NONE', ( #92 ) ) ;
#165 = CLOSED_SHELL ( 'NONE', ( #139, #4, #12 ) ) ;
#166 = EDGE_CURVE ( 'NONE', #147, #147, #32, .T. ) ;
#167 = DIRECTION ( 'NONE',  ( -3.491481338843133355E-15, 1.224646799147353207E-16, -1.000000000000000000 ) ) ;
#168 = VERTEX_POINT ( 'NONE', #135 ) ;
#169 = DIRECTION ( 'NONE',  ( 3.491481338843133355E-15, -1.227517819005651059E-16, 1.000000000000000000 ) ) ;
#170 = EDGE_CURVE ( 'NONE', #79, #79, #141, .T. ) ;
#171 = CARTESIAN_POINT ( 'NONE',  ( 1.361677722148821693E-14, -0.6249999999999996669, 3.899999999999999023 ) ) ;
#172 = EDGE_CURVE ( 'NONE', #150, #150, #52, .T. ) ;
#173 = PERSON_AND_ORGANIZATION_ROLE ( 'creator' ) ;
#174 = COORDINATED_UNIVERSAL_TIME_OFFSET ( 1, 0, .AHEAD. ) ;
#175 = LOCAL_TIME ( 13, 23, 32.00000000000000000, #1 ) ;
#176 = EDGE_CURVE ( 'NONE', #168, #168, #36, .T. ) ;
#177 = ORIENTED_EDGE ( 'NONE', *, *, #176, .F. ) ;
#178 = CARTESIAN_POINT ( 'NONE',  ( 1.361677722148822009E-14, 1.124819836996387869E-32, 3.899999999999999911 ) ) ;
#179 = EDGE_LOOP ( 'NONE', ( #177 ) ) ;
#180 = DIRECTION ( 'NONE',  ( -3.491481338843133355E-15, 1.224646799147353207E-16, -1.000000000000000000 ) ) ;
#181 = CC_DESIGN_PERSON_AND_ORGANIZATION_ASSIGNMENT ( #85, #155, ( #219 ) ) ;
#182 = DIRECTION ( 'NONE',  ( -4.365721105233126240E-31, -1.000000000000000000, -1.227517819005651059E-16 ) ) ;
#183 = CC_DESIGN_DATE_AND_TIME_ASSIGNMENT ( #102, #153, ( #152 ) ) ;
#184 = APPLICATION_PROTOCOL_DEFINITION ( 'international standard', 'config_control_design', 1994, #213 ) ;
#185 = CLOSED_SHELL ( 'NONE', ( #82, #193, #35, #123, #104 ) ) ;
#186 = DIRECTION ( 'NONE',  ( 0.0000000000000000000, 1.000000000000000000, 0.0000000000000000000 ) ) ;
#187 = DIRECTION ( 'NONE',  ( 3.491481338843133355E-15, -1.227517819005651059E-16, 1.000000000000000000 ) ) ;
#188 = DIRECTION ( 'NONE',  ( 0.0000000000000000000, 0.0000000000000000000, 1.000000000000000000 ) ) ;
#189 = PERSON_AND_ORGANIZATION ( #61, #33 ) ;
#190 = LOCAL_TIME ( 13, 23, 32.00000000000000000, #47 ) ;
#191 = APPROVAL_STATUS ( 'not_yet_approved' ) ;
#192 = PLANE ( 'NONE',  #208 ) ;
#193 = ADVANCED_FACE ( 'NONE', ( #11, #29 ), #81, .T. ) ;
#194 = ORIENTED_EDGE ( 'NONE', *, *, #73, .T. ) ;
#195 = CARTESIAN_POINT ( 'NONE',  ( -2.678659723847281548E-31, -1.313158267801488680E-32, -7.671986368785313570E-17 ) ) ;
#196 = FACE_OUTER_BOUND ( 'NONE', #142, .T. ) ;
#197 = ORIENTED_EDGE ( 'NONE', *, *, #215, .F. ) ;
#198 = DIRECTION ( 'NONE',  ( -4.275831445896958607E-31, -1.000000000000000000, -1.224646799147353207E-16 ) ) ;
#199 = CARTESIAN_POINT ( 'NONE',  ( 1.316288464743861212E-13, -4.616918432785521081E-15, 37.69999999999999574 ) ) ;
#200 = PRODUCT ( '57207', '57207', '', ( #64 ) ) ;
#201 = CARTESIAN_POINT ( 'NONE',  ( 0.0000000000000000000, 0.0000000000000000000, 0.0000000000000000000 ) ) ;
#202 = AXIS2_PLACEMENT_3D ( 'NONE', #159, #214, #55 ) ;
#203 = DATE_TIME_ROLE ( 'classification_date' ) ;
#204 = PERSON_AND_ORGANIZATION ( #61, #33 ) ;
#205 = APPROVAL_STATUS ( 'not_yet_approved' ) ;
#206 = EDGE_LOOP ( 'NONE', ( #197 ) ) ;
#207 = DATE_AND_TIME ( #66, #210 ) ;
#208 = AXIS2_PLACEMENT_3D ( 'NONE', #5, #180, #110 ) ;
#209 = CYLINDRICAL_SURFACE ( 'NONE', #202, 0.6249999999999992228 ) ;
#210 = LOCAL_TIME ( 13, 23, 32.00000000000000000, #223 ) ;
#211 = FACE_OUTER_BOUND ( 'NONE', #111, .T. ) ;
#212 = EDGE_LOOP ( 'NONE', ( #161 ) ) ;
#213 = APPLICATION_CONTEXT ( 'configuration controlled 3d designs of mechanical parts and assemblies' ) ;
#214 = DIRECTION ( 'NONE',  ( 3.491481338843133355E-15, -1.227517819005651059E-16, 1.000000000000000000 ) ) ;
#215 = EDGE_CURVE ( 'NONE', #133, #133, #99, .T. ) ;
#216 = CARTESIAN_POINT ( 'NONE',  ( 2.631846529996563124E-14, 1.499999999999995337, 7.537908052713804707 ) ) ;
#217 = CARTESIAN_POINT ( 'NONE',  ( -5.357319447694561345E-31, -0.6249999999999992228, -1.534397273757062467E-16 ) ) ;
#218 = AXIS2_PLACEMENT_3D ( 'NONE', #178, #72, #39 ) ;
#219 = PRODUCT_DEFINITION_FORMATION_WITH_SPECIFIED_SOURCE ( 'ANY', '', #200, .NOT_KNOWN. ) ;
#220 = PRODUCT_DEFINITION_SHAPE ( 'NONE', 'NONE',  #152 ) ;
#221 = APPLICATION_PROTOCOL_DEFINITION ( 'international standard', 'config_control_design', 1994, #21 ) ;
#222 = DATE_AND_TIME ( #105, #108 ) ;
#223 = COORDINATED_UNIVERSAL_TIME_OFFSET ( 1, 0, .AHEAD. ) ;
ENDSEC;
END-ISO-10303-21;
