ISO-10303-21;
HEADER;
FILE_DESCRIPTION (( 'STEP AP203' ),
    '1' );
FILE_NAME ('57206.step',
    '2021-11-01T12:23:31',
    ( '' ),
    ( '' ),
    'SwSTEP 2.0',
    'SolidWorks 2019',
    '' );
FILE_SCHEMA (( 'CONFIG_CONTROL_DESIGN' ));
ENDSEC;

DATA;
#1 = EDGE_CURVE ( 'NONE', #111, #111, #2, .T. ) ;
#2 = CIRCLE ( 'NONE', #182, 1.499999999999995781 ) ;
#3 = CC_DESIGN_APPROVAL ( #21, ( #83 ) ) ;
#4 = ORIENTED_EDGE ( 'NONE', *, *, #203, .F. ) ;
#5 = ADVANCED_FACE ( 'NONE', ( #181, #44 ), #25, .T. ) ;
#6 = DIRECTION ( 'NONE',  ( 0.0000000000000000000, -1.000000000000000000, 0.0000000000000000000 ) ) ;
#7 = APPROVAL_DATE_TIME ( #223, #98 ) ;
#8 = DIRECTION ( 'NONE',  ( 3.491481338843133355E-15, -1.219242935835426903E-16, 1.000000000000000000 ) ) ;
#9 = AXIS2_PLACEMENT_3D ( 'NONE', #125, #129, #100 ) ;
#10 = CARTESIAN_POINT ( 'NONE',  ( 1.047444401652940007E-14, 1.124819836996387869E-32, 3.000000000000000000 ) ) ;
#11 = CC_DESIGN_PERSON_AND_ORGANIZATION_ASSIGNMENT ( #31, #47, ( #231 ) ) ;
#12 = DIRECTION ( 'NONE',  ( -3.491481338843133355E-15, 1.224646799147353207E-16, -1.000000000000000000 ) ) ;
#13 = CARTESIAN_POINT ( 'NONE',  ( 3.745453999408934035E-14, -1.307931472945804887E-15, 10.72740661031272147 ) ) ;
#14 = AXIS2_PLACEMENT_3D ( 'NONE', #81, #162, #67 ) ;
#15 = DATE_AND_TIME ( #51, #115 ) ;
#16 = ADVANCED_FACE ( 'NONE', ( #186, #70 ), #103, .T. ) ;
#17 = CARTESIAN_POINT ( 'NONE',  ( 1.316288464743861212E-13, 1.499999999999993117, 37.69999999999999574 ) ) ;
#18 = CARTESIAN_POINT ( 'NONE',  ( 1.047444401652940007E-14, 1.124819836996387869E-32, 3.000000000000000000 ) ) ;
#19 = APPLICATION_PROTOCOL_DEFINITION ( 'international standard', 'config_control_design', 1994, #243 ) ;
#20 = EDGE_LOOP ( 'NONE', ( #142 ) ) ;
#21 = APPROVAL ( #61, 'UNSPECIFIED' ) ;
#22 = LOCAL_TIME ( 13, 23, 31.00000000000000000, #219 ) ;
#23 = CIRCLE ( 'NONE', #211, 0.4999999999999998890 ) ;
#24 = ORIENTED_EDGE ( 'NONE', *, *, #167, .T. ) ;
#25 = CYLINDRICAL_SURFACE ( 'NONE', #227, 0.5000000000000000000 ) ;
#26 = FACE_OUTER_BOUND ( 'NONE', #75, .T. ) ;
#27 = APPROVAL_STATUS ( 'not_yet_approved' ) ;
#28 = DIRECTION ( 'NONE',  ( 0.0000000000000000000, 1.000000000000000000, 0.0000000000000000000 ) ) ;
#29 = AXIS2_PLACEMENT_3D ( 'NONE', #132, #201, #96 ) ;
#30 = PRODUCT_DEFINITION ( 'UNKNOWN', '', #231, #178 ) ;
#31 = PERSON_AND_ORGANIZATION ( #174, #76 ) ;
#32 = DIRECTION ( 'NONE',  ( -3.491481338843133355E-15, 1.224646799147353207E-16, -1.000000000000000000 ) ) ;
#33 = PERSON_AND_ORGANIZATION_ROLE ( 'classification_officer' ) ;
#34 = AXIS2_PLACEMENT_3D ( 'NONE', #196, #146, #50 ) ;
#35 = MANIFOLD_SOLID_BREP ( 'Corps-Déplacer/Copier1[2]', #78 ) ;
#36 = CALENDAR_DATE ( 2021, 1, 11 ) ;
#37 = PLANE ( 'NONE',  #53 ) ;
#38 = VERTEX_POINT ( 'NONE', #52 ) ;
#39 = ORIENTED_EDGE ( 'NONE', *, *, #177, .F. ) ;
#40 = EDGE_LOOP ( 'NONE', ( #95 ) ) ;
#41 = AXIS2_PLACEMENT_3D ( 'NONE', #198, #32, #28 ) ;
#42 =( GEOMETRIC_REPRESENTATION_CONTEXT ( 3 ) GLOBAL_UNCERTAINTY_ASSIGNED_CONTEXT ( ( #65 ) ) GLOBAL_UNIT_ASSIGNED_CONTEXT ( ( #242, #152, #74 ) ) REPRESENTATION_CONTEXT ( 'NONE', 'WORKASPACE' ) );
#43 = FACE_OUTER_BOUND ( 'NONE', #57, .T. ) ;
#44 = FACE_OUTER_BOUND ( 'NONE', #80, .T. ) ;
#45 = CALENDAR_DATE ( 2021, 1, 11 ) ;
#46 = DIRECTION ( 'NONE',  ( -4.256963957985708889E-31, -1.000000000000000000, -1.219242935835426903E-16 ) ) ;
#47 = PERSON_AND_ORGANIZATION_ROLE ( 'creator' ) ;
#48 = DIRECTION ( 'NONE',  ( 3.491481338843133355E-15, -1.219242935835426903E-16, 1.000000000000000000 ) ) ;
#49 = COORDINATED_UNIVERSAL_TIME_OFFSET ( 1, 0, .AHEAD. ) ;
#50 = DIRECTION ( 'NONE',  ( -4.275831445896958607E-31, -1.000000000000000000, -1.224646799147353207E-16 ) ) ;
#51 = CALENDAR_DATE ( 2021, 1, 11 ) ;
#52 = CARTESIAN_POINT ( 'NONE',  ( 1.228176774875465645E-14, -0.5681483474218609331, 3.517638090205028600 ) ) ;
#53 = AXIS2_PLACEMENT_3D ( 'NONE', #18, #169, #55 ) ;
#54 = DIRECTION ( 'NONE',  ( 3.491481338843133355E-15, -1.219242935835426903E-16, 1.000000000000000000 ) ) ;
#55 = DIRECTION ( 'NONE',  ( -4.275831445896958607E-31, -1.000000000000000000, -1.224646799147353207E-16 ) ) ;
#56 = TOROIDAL_SURFACE ( 'NONE', #149, 2.500000000000000444, 2.000000000000000000 ) ;
#57 = EDGE_LOOP ( 'NONE', ( #39 ) ) ;
#58 = ORIENTED_EDGE ( 'NONE', *, *, #203, .T. ) ;
#59 = APPROVAL_PERSON_ORGANIZATION ( #87, #92, #216 ) ;
#60 = FACE_BOUND ( 'NONE', #229, .T. ) ;
#61 = APPROVAL_STATUS ( 'not_yet_approved' ) ;
#62 = FACE_OUTER_BOUND ( 'NONE', #210, .T. ) ;
#63 = APPROVAL_ROLE ( '' ) ;
#64 = FACE_OUTER_BOUND ( 'NONE', #99, .T. ) ;
#65 = UNCERTAINTY_MEASURE_WITH_UNIT (LENGTH_MEASURE( 1.000000000000000082E-05 ), #242, 'distance_accuracy_value', 'NONE');
#66 = CALENDAR_DATE ( 2021, 1, 11 ) ;
#67 = DIRECTION ( 'NONE',  ( 4.275831445896958607E-31, 1.000000000000000000, 1.224646799147353207E-16 ) ) ;
#68 = APPROVAL_PERSON_ORGANIZATION ( #107, #21, #63 ) ;
#69 = DATE_AND_TIME ( #45, #176 ) ;
#70 = FACE_OUTER_BOUND ( 'NONE', #158, .T. ) ;
#71 = APPLICATION_CONTEXT ( 'configuration controlled 3d designs of mechanical parts and assemblies' ) ;
#72 = APPLICATION_PROTOCOL_DEFINITION ( 'international standard', 'config_control_design', 1994, #71 ) ;
#73 = EDGE_LOOP ( 'NONE', ( #4 ) ) ;
#74 =( NAMED_UNIT ( * ) SI_UNIT ( $, .STERADIAN. ) SOLID_ANGLE_UNIT ( ) );
#75 = EDGE_LOOP ( 'NONE', ( #137 ) ) ;
#76 = ORGANIZATION ( 'UNSPECIFIED', 'UNSPECIFIED', '' ) ;
#77 = ADVANCED_FACE ( 'NONE', ( #64, #62 ), #56, .F. ) ;
#78 = CLOSED_SHELL ( 'NONE', ( #212, #5, #120 ) ) ;
#79 = CC_DESIGN_PERSON_AND_ORGANIZATION_ASSIGNMENT ( #214, #33, ( #83 ) ) ;
#80 = EDGE_LOOP ( 'NONE', ( #138 ) ) ;
#81 = CARTESIAN_POINT ( 'NONE',  ( 1.326762908760390423E-13, 8.998558695971062171E-33, 38.00000000000000000 ) ) ;
#82 = COORDINATED_UNIVERSAL_TIME_OFFSET ( 1, 0, .AHEAD. ) ;
#83 = SECURITY_CLASSIFICATION ( '', '', #126 ) ;
#84 = CARTESIAN_POINT ( 'NONE',  ( 0.0000000000000000000, 0.0000000000000000000, 0.0000000000000000000 ) ) ;
#85 = DIRECTION ( 'NONE',  ( 3.491481338843133355E-15, -1.219242935835426903E-16, 1.000000000000000000 ) ) ;
#86 = CARTESIAN_POINT ( 'NONE',  ( 1.316288464743861212E-13, -4.616918432785521081E-15, 37.69999999999999574 ) ) ;
#87 = PERSON_AND_ORGANIZATION ( #174, #76 ) ;
#88 = CARTESIAN_POINT ( 'NONE',  ( 1.326762908760390423E-13, -4.653657836759941941E-15, 38.00000000000000000 ) ) ;
#89 = PERSON_AND_ORGANIZATION ( #174, #76 ) ;
#90 = MECHANICAL_CONTEXT ( 'NONE', #243, 'mechanical' ) ;
#91 = PRODUCT ( '57206', '57206', '', ( #90 ) ) ;
#92 = APPROVAL ( #27, 'UNSPECIFIED' ) ;
#93 = CARTESIAN_POINT ( 'NONE',  ( 1.047444401652939849E-14, -3.657728807506280215E-16, 2.999999999999999556 ) ) ;
#94 = AXIS2_PLACEMENT_3D ( 'NONE', #86, #220, #230 ) ;
#95 = ORIENTED_EDGE ( 'NONE', *, *, #177, .T. ) ;
#96 = DIRECTION ( 'NONE',  ( 1.000000000000000000, 0.0000000000000000000, 0.0000000000000000000 ) ) ;
#97 = EDGE_LOOP ( 'NONE', ( #24 ) ) ;
#98 = APPROVAL ( #197, 'UNSPECIFIED' ) ;
#99 = EDGE_LOOP ( 'NONE', ( #204 ) ) ;
#100 = DIRECTION ( 'NONE',  ( 0.0000000000000000000, -1.000000000000000000, 0.0000000000000000000 ) ) ;
#101 = ADVANCED_FACE ( 'NONE', ( #26 ), #213, .F. ) ;
#102 = CYLINDRICAL_SURFACE ( 'NONE', #205, 1.499999999999995781 ) ;
#103 = CONICAL_SURFACE ( 'NONE', #225, 2.499999999999996447, 0.2617993877991428575 ) ;
#104 = DIRECTION ( 'NONE',  ( -3.491481338843133355E-15, 1.224646799147353207E-16, -1.000000000000000000 ) ) ;
#105 = CALENDAR_DATE ( 2021, 1, 11 ) ;
#106 = DIRECTION ( 'NONE',  ( 3.491481338843133355E-15, -1.219242935835426903E-16, 1.000000000000000000 ) ) ;
#107 = PERSON_AND_ORGANIZATION ( #174, #76 ) ;
#108 = FACE_OUTER_BOUND ( 'NONE', #118, .T. ) ;
#109 = COORDINATED_UNIVERSAL_TIME_OFFSET ( 1, 0, .AHEAD. ) ;
#110 = AXIS2_PLACEMENT_3D ( 'NONE', #123, #48, #127 ) ;
#111 = VERTEX_POINT ( 'NONE', #114 ) ;
#112 = EDGE_CURVE ( 'NONE', #38, #38, #144, .T. ) ;
#113 = VERTEX_POINT ( 'NONE', #168 ) ;
#114 = CARTESIAN_POINT ( 'NONE',  ( 2.442415424384780940E-14, -1.499999999999996669, 6.995355802743743467 ) ) ;
#115 = LOCAL_TIME ( 13, 23, 31.00000000000000000, #109 ) ;
#116 = CLOSED_SHELL ( 'NONE', ( #155, #193, #117, #16, #77, #101 ) ) ;
#117 = ADVANCED_FACE ( 'NONE', ( #179 ), #222, .F. ) ;
#118 = EDGE_LOOP ( 'NONE', ( #206 ) ) ;
#119 = AXIS2_PLACEMENT_3D ( 'NONE', #10, #236, #195 ) ;
#120 = ADVANCED_FACE ( 'NONE', ( #43 ), #122, .F. ) ;
#121 = ORIENTED_EDGE ( 'NONE', *, *, #112, .F. ) ;
#122 = PLANE ( 'NONE',  #34 ) ;
#123 = CARTESIAN_POINT ( 'NONE',  ( -2.136983697835317461E-30, 7.462455114952685767E-32, -6.120564569717519923E-16 ) ) ;
#124 = CIRCLE ( 'NONE', #153, 0.4999999999999998890 ) ;
#125 = CARTESIAN_POINT ( 'NONE',  ( 1.228176774875465645E-14, -4.288855392308103452E-16, 3.517638090205028600 ) ) ;
#126 = SECURITY_CLASSIFICATION_LEVEL ( 'unclassified' ) ;
#127 = DIRECTION ( 'NONE',  ( -4.256963957985712392E-31, -1.000000000000000000, -1.219242935835427396E-16 ) ) ;
#128 = DATE_TIME_ROLE ( 'creation_date' ) ;
#129 = DIRECTION ( 'NONE',  ( 3.491481338843133355E-15, -1.219242935835426903E-16, 1.000000000000000000 ) ) ;
#130 = SHAPE_DEFINITION_REPRESENTATION ( #139, #141 ) ;
#131 = APPROVAL_PERSON_ORGANIZATION ( #148, #98, #232 ) ;
#132 = CARTESIAN_POINT ( 'NONE',  ( 0.0000000000000000000, 0.0000000000000000000, 0.0000000000000000000 ) ) ;
#133 = VERTEX_POINT ( 'NONE', #17 ) ;
#134 = CARTESIAN_POINT ( 'NONE',  ( 1.326762908760390423E-13, 1.199999999999993294, 38.00000000000000000 ) ) ;
#135 = CARTESIAN_POINT ( 'NONE',  ( -2.349831895734603125E-30, -0.5000000000000000000, -6.730186037635234361E-16 ) ) ;
#136 = CONICAL_SURFACE ( 'NONE', #41, 1.199999999999997957, 0.7853981633974450594 ) ;
#137 = ORIENTED_EDGE ( 'NONE', *, *, #157, .F. ) ;
#138 = ORIENTED_EDGE ( 'NONE', *, *, #224, .F. ) ;
#139 = PRODUCT_DEFINITION_SHAPE ( 'NONE', 'NONE',  #30 ) ;
#140 = CC_DESIGN_PERSON_AND_ORGANIZATION_ASSIGNMENT ( #235, #151, ( #30 ) ) ;
#141 = ADVANCED_BREP_SHAPE_REPRESENTATION ( '57206', ( #190, #35, #29 ), #42 ) ;
#142 = ORIENTED_EDGE ( 'NONE', *, *, #1, .F. ) ;
#143 = EDGE_LOOP ( 'NONE', ( #172 ) ) ;
#144 = CIRCLE ( 'NONE', #9, 0.5681483474218604890 ) ;
#145 = DIRECTION ( 'NONE',  ( -4.315975723326284799E-31, -1.000000000000000000, -1.219242935835426903E-16 ) ) ;
#146 = DIRECTION ( 'NONE',  ( 3.491481338843133355E-15, -1.224646799147353207E-16, 1.000000000000000000 ) ) ;
#147 = CARTESIAN_POINT ( 'NONE',  ( 2.442415424384780940E-14, -8.529038146150672534E-16, 6.995355802743743467 ) ) ;
#148 = PERSON_AND_ORGANIZATION ( #174, #76 ) ;
#149 = AXIS2_PLACEMENT_3D ( 'NONE', #233, #8, #145 ) ;
#150 = DIRECTION ( 'NONE',  ( 0.0000000000000000000, -1.000000000000000000, 0.0000000000000000000 ) ) ;
#151 = PERSON_AND_ORGANIZATION_ROLE ( 'creator' ) ;
#152 =( NAMED_UNIT ( * ) PLANE_ANGLE_UNIT ( ) SI_UNIT ( $, .RADIAN. ) );
#153 = AXIS2_PLACEMENT_3D ( 'NONE', #215, #85, #150 ) ;
#154 = CARTESIAN_POINT ( 'NONE',  ( 1.047444401652939849E-14, -0.5000000000000002220, 2.999999999999999556 ) ) ;
#155 = ADVANCED_FACE ( 'NONE', ( #192, #184 ), #102, .T. ) ;
#156 = CC_DESIGN_DATE_AND_TIME_ASSIGNMENT ( #161, #165, ( #83 ) ) ;
#157 = EDGE_CURVE ( 'NONE', #173, #173, #124, .T. ) ;
#158 = EDGE_LOOP ( 'NONE', ( #191 ) ) ;
#159 = DIRECTION ( 'NONE',  ( 4.275831445896958607E-31, 1.000000000000000000, 1.224646799147353207E-16 ) ) ;
#160 = LOCAL_TIME ( 13, 23, 31.00000000000000000, #49 ) ;
#161 = DATE_AND_TIME ( #105, #218 ) ;
#162 = DIRECTION ( 'NONE',  ( -3.491481338843133355E-15, 1.224646799147353207E-16, -1.000000000000000000 ) ) ;
#163 = CARTESIAN_POINT ( 'NONE',  ( 0.0000000000000000000, 0.0000000000000000000, 0.0000000000000000000 ) ) ;
#164 = DIRECTION ( 'NONE',  ( 0.0000000000000000000, -1.000000000000000000, 0.0000000000000000000 ) ) ;
#165 = DATE_TIME_ROLE ( 'classification_date' ) ;
#166 = DIRECTION ( 'NONE',  ( 0.0000000000000000000, 1.000000000000000000, 0.0000000000000000000 ) ) ;
#167 = EDGE_CURVE ( 'NONE', #133, #133, #200, .T. ) ;
#168 = CARTESIAN_POINT ( 'NONE',  ( 1.047444401652939849E-14, -0.5000000000000002220, 2.999999999999999556 ) ) ;
#169 = DIRECTION ( 'NONE',  ( 3.491481338843133355E-15, -1.224646799147353207E-16, 1.000000000000000000 ) ) ;
#170 = DIRECTION ( 'NONE',  ( 0.0000000000000000000, -1.000000000000000000, 0.0000000000000000000 ) ) ;
#171 = CC_DESIGN_SECURITY_CLASSIFICATION ( #83, ( #231 ) ) ;
#172 = ORIENTED_EDGE ( 'NONE', *, *, #112, .T. ) ;
#173 = VERTEX_POINT ( 'NONE', #154 ) ;
#174 = PERSON ( 'UNSPECIFIED', 'UNSPECIFIED', 'UNSPECIFIED', ('UNSPECIFIED'), ('UNSPECIFIED'), ('UNSPECIFIED') ) ;
#175 = ORIENTED_EDGE ( 'NONE', *, *, #224, .T. ) ;
#176 = LOCAL_TIME ( 13, 23, 31.00000000000000000, #239 ) ;
#177 = EDGE_CURVE ( 'NONE', #202, #202, #237, .T. ) ;
#178 = DESIGN_CONTEXT ( 'detailed design', #71, 'design' ) ;
#179 = FACE_OUTER_BOUND ( 'NONE', #73, .T. ) ;
#180 = PERSON_AND_ORGANIZATION ( #174, #76 ) ;
#181 = FACE_OUTER_BOUND ( 'NONE', #40, .T. ) ;
#182 = AXIS2_PLACEMENT_3D ( 'NONE', #147, #234, #6 ) ;
#183 = CC_DESIGN_PERSON_AND_ORGANIZATION_ASSIGNMENT ( #89, #241, ( #91 ) ) ;
#184 = FACE_OUTER_BOUND ( 'NONE', #20, .T. ) ;
#185 = APPROVAL_DATE_TIME ( #15, #21 ) ;
#186 = FACE_BOUND ( 'NONE', #143, .T. ) ;
#187 = VERTEX_POINT ( 'NONE', #134 ) ;
#188 = CIRCLE ( 'NONE', #217, 1.199999999999997957 ) ;
#189 = CC_DESIGN_APPROVAL ( #98, ( #231 ) ) ;
#190 = MANIFOLD_SOLID_BREP ( 'Corps-Déplacer/Copier1[1]', #116 ) ;
#191 = ORIENTED_EDGE ( 'NONE', *, *, #1, .T. ) ;
#192 = FACE_OUTER_BOUND ( 'NONE', #97, .T. ) ;
#193 = ADVANCED_FACE ( 'NONE', ( #108, #60 ), #136, .T. ) ;
#194 = DATE_AND_TIME ( #66, #160 ) ;
#195 = DIRECTION ( 'NONE',  ( -4.275831445896958607E-31, -1.000000000000000000, -1.224646799147353207E-16 ) ) ;
#196 = CARTESIAN_POINT ( 'NONE',  ( -6.413803915257455362E-31, 2.249659577954771652E-32, -1.836986451539392583E-16 ) ) ;
#197 = APPROVAL_STATUS ( 'not_yet_approved' ) ;
#198 = CARTESIAN_POINT ( 'NONE',  ( 1.326762908760390423E-13, -4.653657836759941941E-15, 38.00000000000000000 ) ) ;
#199 = APPROVAL_DATE_TIME ( #69, #92 ) ;
#200 = CIRCLE ( 'NONE', #94, 1.499999999999997558 ) ;
#201 = DIRECTION ( 'NONE',  ( 0.0000000000000000000, 0.0000000000000000000, 1.000000000000000000 ) ) ;
#202 = VERTEX_POINT ( 'NONE', #135 ) ;
#203 = EDGE_CURVE ( 'NONE', #187, #187, #188, .T. ) ;
#204 = ORIENTED_EDGE ( 'NONE', *, *, #157, .T. ) ;
#205 = AXIS2_PLACEMENT_3D ( 'NONE', #84, #12, #159 ) ;
#206 = ORIENTED_EDGE ( 'NONE', *, *, #167, .F. ) ;
#207 = CC_DESIGN_APPROVAL ( #92, ( #30 ) ) ;
#208 = CC_DESIGN_PERSON_AND_ORGANIZATION_ASSIGNMENT ( #180, #221, ( #231 ) ) ;
#209 = EDGE_LOOP ( 'NONE', ( #175 ) ) ;
#210 = EDGE_LOOP ( 'NONE', ( #121 ) ) ;
#211 = AXIS2_PLACEMENT_3D ( 'NONE', #93, #54, #170 ) ;
#212 = ADVANCED_FACE ( 'NONE', ( #240 ), #37, .T. ) ;
#213 = PLANE ( 'NONE',  #119 ) ;
#214 = PERSON_AND_ORGANIZATION ( #174, #76 ) ;
#215 = CARTESIAN_POINT ( 'NONE',  ( 1.047444401652939849E-14, -3.657728807506280215E-16, 2.999999999999999556 ) ) ;
#216 = APPROVAL_ROLE ( '' ) ;
#217 = AXIS2_PLACEMENT_3D ( 'NONE', #88, #104, #166 ) ;
#218 = LOCAL_TIME ( 13, 23, 31.00000000000000000, #82 ) ;
#219 = COORDINATED_UNIVERSAL_TIME_OFFSET ( 1, 0, .AHEAD. ) ;
#220 = DIRECTION ( 'NONE',  ( -3.491481338843133355E-15, 1.224646799147353207E-16, -1.000000000000000000 ) ) ;
#221 = PERSON_AND_ORGANIZATION_ROLE ( 'design_supplier' ) ;
#222 = PLANE ( 'NONE',  #14 ) ;
#223 = DATE_AND_TIME ( #36, #22 ) ;
#224 = EDGE_CURVE ( 'NONE', #113, #113, #23, .T. ) ;
#225 = AXIS2_PLACEMENT_3D ( 'NONE', #13, #238, #164 ) ;
#226 = PRODUCT_RELATED_PRODUCT_CATEGORY ( 'detail', '', ( #91 ) ) ;
#227 = AXIS2_PLACEMENT_3D ( 'NONE', #163, #106, #46 ) ;
#228 = CC_DESIGN_DATE_AND_TIME_ASSIGNMENT ( #194, #128, ( #30 ) ) ;
#229 = EDGE_LOOP ( 'NONE', ( #58 ) ) ;
#230 = DIRECTION ( 'NONE',  ( 0.0000000000000000000, 1.000000000000000000, 0.0000000000000000000 ) ) ;
#231 = PRODUCT_DEFINITION_FORMATION_WITH_SPECIFIED_SOURCE ( 'ANY', '', #91, .NOT_KNOWN. ) ;
#232 = APPROVAL_ROLE ( '' ) ;
#233 = CARTESIAN_POINT ( 'NONE',  ( 1.047444401652939849E-14, -4.336808689942017736E-16, 2.999999999999999556 ) ) ;
#234 = DIRECTION ( 'NONE',  ( -3.491481338843133355E-15, 1.219242935835426903E-16, -1.000000000000000000 ) ) ;
#235 = PERSON_AND_ORGANIZATION ( #174, #76 ) ;
#236 = DIRECTION ( 'NONE',  ( 3.491481338843133355E-15, -1.224646799147353207E-16, 1.000000000000000000 ) ) ;
#237 = CIRCLE ( 'NONE', #110, 0.5000000000000000000 ) ;
#238 = DIRECTION ( 'NONE',  ( 3.491481338843133355E-15, -1.219242935835426903E-16, 1.000000000000000000 ) ) ;
#239 = COORDINATED_UNIVERSAL_TIME_OFFSET ( 1, 0, .AHEAD. ) ;
#240 = FACE_OUTER_BOUND ( 'NONE', #209, .T. ) ;
#241 = PERSON_AND_ORGANIZATION_ROLE ( 'design_owner' ) ;
#242 =( LENGTH_UNIT ( ) NAMED_UNIT ( * ) SI_UNIT ( .MILLI., .METRE. ) );
#243 = APPLICATION_CONTEXT ( 'configuration controlled 3d designs of mechanical parts and assemblies' ) ;
ENDSEC;
END-ISO-10303-21;
