ISO-10303-21;
HEADER;
FILE_DESCRIPTION (( 'STEP AP203' ),
    '1' );
FILE_NAME ('57205.step',
    '2021-11-01T12:23:31',
    ( '' ),
    ( '' ),
    'SwSTEP 2.0',
    'SolidWorks 2019',
    '' );
FILE_SCHEMA (( 'CONFIG_CONTROL_DESIGN' ));
ENDSEC;

DATA;
#1 = AXIS2_PLACEMENT_3D ( 'NONE', #83, #227, #234 ) ;
#2 = DIRECTION ( 'NONE',  ( 4.275831445896958607E-31, 1.000000000000000000, 1.224646799147353207E-16 ) ) ;
#3 = CARTESIAN_POINT ( 'NONE',  ( -6.413803915257455362E-31, 2.249659577954771652E-32, -1.836986451539392583E-16 ) ) ;
#4 = PRODUCT_RELATED_PRODUCT_CATEGORY ( 'detail', '', ( #238 ) ) ;
#5 = AXIS2_PLACEMENT_3D ( 'NONE', #116, #6, #132 ) ;
#6 = DIRECTION ( 'NONE',  ( 3.491481338843133355E-15, -1.219242935835426903E-16, 1.000000000000000000 ) ) ;
#7 = CC_DESIGN_PERSON_AND_ORGANIZATION_ASSIGNMENT ( #213, #91, ( #238 ) ) ;
#8 = CARTESIAN_POINT ( 'NONE',  ( 0.0000000000000000000, 0.0000000000000000000, 0.0000000000000000000 ) ) ;
#9 = FACE_OUTER_BOUND ( 'NONE', #105, .T. ) ;
#10 = DATE_TIME_ROLE ( 'classification_date' ) ;
#11 =( NAMED_UNIT ( * ) SI_UNIT ( $, .STERADIAN. ) SOLID_ANGLE_UNIT ( ) );
#12 = CALENDAR_DATE ( 2021, 1, 11 ) ;
#13 = CIRCLE ( 'NONE', #5, 0.3749999999999997224 ) ;
#14 = EDGE_LOOP ( 'NONE', ( #36 ) ) ;
#15 = DATE_AND_TIME ( #12, #153 ) ;
#16 = APPROVAL ( #198, 'UNSPECIFIED' ) ;
#17 = DIRECTION ( 'NONE',  ( 4.275831445896958607E-31, 1.000000000000000000, 1.224646799147353207E-16 ) ) ;
#18 = EDGE_LOOP ( 'NONE', ( #173 ) ) ;
#19 = DIRECTION ( 'NONE',  ( -4.275831445896958607E-31, -1.000000000000000000, -1.224646799147353207E-16 ) ) ;
#20 = AXIS2_PLACEMENT_3D ( 'NONE', #101, #150, #205 ) ;
#21 = CC_DESIGN_PERSON_AND_ORGANIZATION_ASSIGNMENT ( #152, #137, ( #170 ) ) ;
#22 = CARTESIAN_POINT ( 'NONE',  ( 8.379555213223516897E-15, -2.926183046005023679E-16, 2.399999999999999467 ) ) ;
#23 = ADVANCED_FACE ( 'NONE', ( #183, #219 ), #196, .F. ) ;
#24 = PRODUCT_DEFINITION ( 'UNKNOWN', '', #170, #204 ) ;
#25 = AXIS2_PLACEMENT_3D ( 'NONE', #99, #166, #169 ) ;
#26 = MANIFOLD_SOLID_BREP ( 'Corps-Déplacer/Copier1[2]', #237 ) ;
#27 = CARTESIAN_POINT ( 'NONE',  ( 8.379555213223516897E-15, -0.3750000000000000000, 2.399999999999999467 ) ) ;
#28 = ADVANCED_FACE ( 'NONE', ( #185 ), #158, .F. ) ;
#29 = CARTESIAN_POINT ( 'NONE',  ( -2.243407796784959943E-30, -0.3749999999999998890, -6.425375303676377142E-16 ) ) ;
#30 = CARTESIAN_POINT ( 'NONE',  ( 1.018687894544876854E-14, -3.557309630806844451E-16, 2.917638090205026291 ) ) ;
#31 = FACE_OUTER_BOUND ( 'NONE', #122, .T. ) ;
#32 = CONICAL_SURFACE ( 'NONE', #20, 2.499999999999996447, 0.2617993877991428020 ) ;
#33 = EDGE_LOOP ( 'NONE', ( #157 ) ) ;
#34 = MECHANICAL_CONTEXT ( 'NONE', #58, 'mechanical' ) ;
#35 = ORIENTED_EDGE ( 'NONE', *, *, #100, .F. ) ;
#36 = ORIENTED_EDGE ( 'NONE', *, *, #100, .T. ) ;
#37 = ORIENTED_EDGE ( 'NONE', *, *, #48, .T. ) ;
#38 = COORDINATED_UNIVERSAL_TIME_OFFSET ( 1, 0, .AHEAD. ) ;
#39 = DIRECTION ( 'NONE',  ( 3.491481338843133355E-15, -1.224646799147353207E-16, 1.000000000000000000 ) ) ;
#40 = AXIS2_PLACEMENT_3D ( 'NONE', #42, #163, #188 ) ;
#41 = DIRECTION ( 'NONE',  ( -4.256963957985704510E-31, -1.000000000000000000, -1.219242935835427149E-16 ) ) ;
#42 = CARTESIAN_POINT ( 'NONE',  ( 2.395806365932211090E-14, -8.366276957562834836E-16, 6.861862153689863852 ) ) ;
#43 = DIRECTION ( 'NONE',  ( 0.0000000000000000000, 1.000000000000000000, 0.0000000000000000000 ) ) ;
#44 = CIRCLE ( 'NONE', #40, 1.499999999999995559 ) ;
#45 = COORDINATED_UNIVERSAL_TIME_OFFSET ( 1, 0, .AHEAD. ) ;
#46 = DIRECTION ( 'NONE',  ( 1.000000000000000000, 0.0000000000000000000, 0.0000000000000000000 ) ) ;
#47 = CC_DESIGN_APPROVAL ( #161, ( #170 ) ) ;
#48 = EDGE_CURVE ( 'NONE', #210, #210, #121, .T. ) ;
#49 = APPLICATION_PROTOCOL_DEFINITION ( 'international standard', 'config_control_design', 1994, #184 ) ;
#50 = PERSON_AND_ORGANIZATION ( #230, #226 ) ;
#51 = ADVANCED_FACE ( 'NONE', ( #202 ), #89, .F. ) ;
#52 = AXIS2_PLACEMENT_3D ( 'NONE', #223, #59, #43 ) ;
#53 = CARTESIAN_POINT ( 'NONE',  ( -2.083771648360496221E-30, 7.276635947879612214E-32, -5.968159202738091314E-16 ) ) ;
#54 = EDGE_CURVE ( 'NONE', #130, #130, #117, .T. ) ;
#55 = DIRECTION ( 'NONE',  ( 3.491481338843133355E-15, -1.219242935835426903E-16, 1.000000000000000000 ) ) ;
#56 = APPROVAL_PERSON_ORGANIZATION ( #57, #127, #218 ) ;
#57 = PERSON_AND_ORGANIZATION ( #230, #226 ) ;
#58 = APPLICATION_CONTEXT ( 'configuration controlled 3d designs of mechanical parts and assemblies' ) ;
#59 = DIRECTION ( 'NONE',  ( -3.491481338843133355E-15, 1.224646799147353207E-16, -1.000000000000000000 ) ) ;
#60 = AXIS2_PLACEMENT_3D ( 'NONE', #22, #160, #144 ) ;
#61 = VERTEX_POINT ( 'NONE', #27 ) ;
#62 = FACE_BOUND ( 'NONE', #221, .T. ) ;
#63 = CARTESIAN_POINT ( 'NONE',  ( 1.326762908760390423E-13, 1.199999999999993294, 38.00000000000000000 ) ) ;
#64 = FACE_OUTER_BOUND ( 'NONE', #109, .T. ) ;
#65 = CARTESIAN_POINT ( 'NONE',  ( 1.326762908760390423E-13, 8.998558695971062171E-33, 38.00000000000000000 ) ) ;
#66 = DATE_AND_TIME ( #123, #113 ) ;
#67 = ADVANCED_FACE ( 'NONE', ( #189, #206 ), #98, .T. ) ;
#68 = APPROVAL_DATE_TIME ( #66, #16 ) ;
#69 = AXIS2_PLACEMENT_3D ( 'NONE', #3, #119, #95 ) ;
#70 = PERSON_AND_ORGANIZATION ( #230, #226 ) ;
#71 = ORIENTED_EDGE ( 'NONE', *, *, #193, .T. ) ;
#72 = DATE_AND_TIME ( #86, #80 ) ;
#73 = PERSON_AND_ORGANIZATION ( #230, #226 ) ;
#74 = EDGE_CURVE ( 'NONE', #97, #97, #159, .T. ) ;
#75 = CIRCLE ( 'NONE', #141, 0.4431483474218598784 ) ;
#76 = CC_DESIGN_SECURITY_CLASSIFICATION ( #242, ( #170 ) ) ;
#77 = EDGE_LOOP ( 'NONE', ( #243 ) ) ;
#78 = DIRECTION ( 'NONE',  ( -4.317661773764587743E-31, -1.000000000000000000, -1.219242935835426903E-16 ) ) ;
#79 = CARTESIAN_POINT ( 'NONE',  ( 1.316288464743861212E-13, 1.499999999999993117, 37.69999999999999574 ) ) ;
#80 = LOCAL_TIME ( 13, 23, 31.00000000000000000, #155 ) ;
#81 = CARTESIAN_POINT ( 'NONE',  ( 1.316288464743861212E-13, -4.616918432785521081E-15, 37.69999999999999574 ) ) ;
#82 = DIRECTION ( 'NONE',  ( 0.0000000000000000000, 1.000000000000000000, 0.0000000000000000000 ) ) ;
#83 = CARTESIAN_POINT ( 'NONE',  ( 1.326762908760390423E-13, -4.653657836759941941E-15, 38.00000000000000000 ) ) ;
#84 = AXIS2_PLACEMENT_3D ( 'NONE', #192, #209, #146 ) ;
#85 = FACE_OUTER_BOUND ( 'NONE', #178, .T. ) ;
#86 = CALENDAR_DATE ( 2021, 1, 11 ) ;
#87 = EDGE_CURVE ( 'NONE', #207, #207, #44, .T. ) ;
#88 = ORIENTED_EDGE ( 'NONE', *, *, #54, .F. ) ;
#89 = PLANE ( 'NONE',  #222 ) ;
#90 = APPROVAL_ROLE ( '' ) ;
#91 = PERSON_AND_ORGANIZATION_ROLE ( 'design_owner' ) ;
#92 = AXIS2_PLACEMENT_3D ( 'NONE', #53, #125, #41 ) ;
#93 = ADVANCED_BREP_SHAPE_REPRESENTATION ( '57205', ( #172, #26, #216 ), #164 ) ;
#94 = EDGE_CURVE ( 'NONE', #61, #61, #13, .T. ) ;
#95 = DIRECTION ( 'NONE',  ( -4.275831445896958607E-31, -1.000000000000000000, -1.224646799147353207E-16 ) ) ;
#96 = APPROVAL_PERSON_ORGANIZATION ( #50, #16, #90 ) ;
#97 = VERTEX_POINT ( 'NONE', #63 ) ;
#98 = CYLINDRICAL_SURFACE ( 'NONE', #149, 1.499999999999995559 ) ;
#99 = CARTESIAN_POINT ( 'NONE',  ( 0.0000000000000000000, 0.0000000000000000000, 0.0000000000000000000 ) ) ;
#100 = EDGE_CURVE ( 'NONE', #162, #162, #187, .T. ) ;
#101 = CARTESIAN_POINT ( 'NONE',  ( 3.698844940956364816E-14, -1.291655354087021512E-15, 10.59391296125884452 ) ) ;
#102 = APPROVAL_PERSON_ORGANIZATION ( #70, #161, #104 ) ;
#103 = CALENDAR_DATE ( 2021, 1, 11 ) ;
#104 = APPROVAL_ROLE ( '' ) ;
#105 = EDGE_LOOP ( 'NONE', ( #35 ) ) ;
#106 = ORIENTED_EDGE ( 'NONE', *, *, #94, .F. ) ;
#107 = APPLICATION_PROTOCOL_DEFINITION ( 'international standard', 'config_control_design', 1994, #58 ) ;
#108 = AXIS2_PLACEMENT_3D ( 'NONE', #142, #39, #19 ) ;
#109 = EDGE_LOOP ( 'NONE', ( #106 ) ) ;
#110 =( NAMED_UNIT ( * ) PLANE_ANGLE_UNIT ( ) SI_UNIT ( $, .RADIAN. ) );
#111 = CALENDAR_DATE ( 2021, 1, 11 ) ;
#112 = ORIENTED_EDGE ( 'NONE', *, *, #94, .T. ) ;
#113 = LOCAL_TIME ( 13, 23, 31.00000000000000000, #154 ) ;
#114 = ADVANCED_FACE ( 'NONE', ( #85 ), #129, .F. ) ;
#115 = CARTESIAN_POINT ( 'NONE',  ( 2.395806365932211090E-14, -1.499999999999996447, 6.861862153689863852 ) ) ;
#116 = CARTESIAN_POINT ( 'NONE',  ( 8.379555213223516897E-15, -2.926183046005023679E-16, 2.399999999999999467 ) ) ;
#117 = CIRCLE ( 'NONE', #92, 0.3749999999999998890 ) ;
#118 = PLANE ( 'NONE',  #84 ) ;
#119 = DIRECTION ( 'NONE',  ( 3.491481338843133355E-15, -1.224646799147353207E-16, 1.000000000000000000 ) ) ;
#120 = DATE_TIME_ROLE ( 'creation_date' ) ;
#121 = CIRCLE ( 'NONE', #60, 0.3749999999999997224 ) ;
#122 = EDGE_LOOP ( 'NONE', ( #112 ) ) ;
#123 = CALENDAR_DATE ( 2021, 1, 11 ) ;
#124 = PERSON_AND_ORGANIZATION_ROLE ( 'design_supplier' ) ;
#125 = DIRECTION ( 'NONE',  ( 3.491481338843133355E-15, -1.219242935835426903E-16, 1.000000000000000000 ) ) ;
#126 = ORIENTED_EDGE ( 'NONE', *, *, #87, .T. ) ;
#127 = APPROVAL ( #140, 'UNSPECIFIED' ) ;
#128 = AXIS2_PLACEMENT_3D ( 'NONE', #203, #55, #78 ) ;
#129 = PLANE ( 'NONE',  #69 ) ;
#130 = VERTEX_POINT ( 'NONE', #29 ) ;
#131 = ADVANCED_FACE ( 'NONE', ( #31 ), #118, .T. ) ;
#132 = DIRECTION ( 'NONE',  ( 0.0000000000000000000, -1.000000000000000000, 0.0000000000000000000 ) ) ;
#133 = DIRECTION ( 'NONE',  ( -3.491481338843133355E-15, 1.224646799147353207E-16, -1.000000000000000000 ) ) ;
#134 = CARTESIAN_POINT ( 'NONE',  ( 0.0000000000000000000, 0.0000000000000000000, 0.0000000000000000000 ) ) ;
#135 = CARTESIAN_POINT ( 'NONE',  ( 1.018687894544876854E-14, -0.4431483474218602669, 2.917638090205026291 ) ) ;
#136 = EDGE_LOOP ( 'NONE', ( #126 ) ) ;
#137 = PERSON_AND_ORGANIZATION_ROLE ( 'creator' ) ;
#138 = CC_DESIGN_APPROVAL ( #16, ( #24 ) ) ;
#139 = PERSON_AND_ORGANIZATION_ROLE ( 'classification_officer' ) ;
#140 = APPROVAL_STATUS ( 'not_yet_approved' ) ;
#141 = AXIS2_PLACEMENT_3D ( 'NONE', #30, #233, #147 ) ;
#142 = CARTESIAN_POINT ( 'NONE',  ( 8.379555213223516897E-15, 1.124819836996387869E-32, 2.399999999999999467 ) ) ;
#143 = CC_DESIGN_PERSON_AND_ORGANIZATION_ASSIGNMENT ( #73, #139, ( #242 ) ) ;
#144 = DIRECTION ( 'NONE',  ( 0.0000000000000000000, -1.000000000000000000, 0.0000000000000000000 ) ) ;
#145 = FACE_OUTER_BOUND ( 'NONE', #136, .T. ) ;
#146 = DIRECTION ( 'NONE',  ( -4.275831445896958607E-31, -1.000000000000000000, -1.224646799147353207E-16 ) ) ;
#147 = DIRECTION ( 'NONE',  ( 0.0000000000000000000, -1.000000000000000000, 0.0000000000000000000 ) ) ;
#148 = UNCERTAINTY_MEASURE_WITH_UNIT (LENGTH_MEASURE( 1.000000000000000082E-05 ), #174, 'distance_accuracy_value', 'NONE');
#149 = AXIS2_PLACEMENT_3D ( 'NONE', #8, #186, #2 ) ;
#150 = DIRECTION ( 'NONE',  ( 3.491481338843133355E-15, -1.219242935835426903E-16, 1.000000000000000000 ) ) ;
#151 = VERTEX_POINT ( 'NONE', #135 ) ;
#152 = PERSON_AND_ORGANIZATION ( #230, #226 ) ;
#153 = LOCAL_TIME ( 13, 23, 31.00000000000000000, #177 ) ;
#154 = COORDINATED_UNIVERSAL_TIME_OFFSET ( 1, 0, .AHEAD. ) ;
#155 = COORDINATED_UNIVERSAL_TIME_OFFSET ( 1, 0, .AHEAD. ) ;
#156 = SECURITY_CLASSIFICATION_LEVEL ( 'unclassified' ) ;
#157 = ORIENTED_EDGE ( 'NONE', *, *, #87, .F. ) ;
#158 = PLANE ( 'NONE',  #108 ) ;
#159 = CIRCLE ( 'NONE', #52, 1.199999999999997957 ) ;
#160 = DIRECTION ( 'NONE',  ( 3.491481338843133355E-15, -1.219242935835426903E-16, 1.000000000000000000 ) ) ;
#161 = APPROVAL ( #211, 'UNSPECIFIED' ) ;
#162 = VERTEX_POINT ( 'NONE', #79 ) ;
#163 = DIRECTION ( 'NONE',  ( -3.491481338843133355E-15, 1.219242935835426903E-16, -1.000000000000000000 ) ) ;
#164 =( GEOMETRIC_REPRESENTATION_CONTEXT ( 3 ) GLOBAL_UNCERTAINTY_ASSIGNED_CONTEXT ( ( #148 ) ) GLOBAL_UNIT_ASSIGNED_CONTEXT ( ( #174, #110, #11 ) ) REPRESENTATION_CONTEXT ( 'NONE', 'WORKASPACE' ) );
#165 = CYLINDRICAL_SURFACE ( 'NONE', #25, 0.3749999999999997780 ) ;
#166 = DIRECTION ( 'NONE',  ( 3.491481338843133355E-15, -1.219242935835426903E-16, 1.000000000000000000 ) ) ;
#167 = ADVANCED_FACE ( 'NONE', ( #190, #145 ), #32, .T. ) ;
#168 = CC_DESIGN_DATE_AND_TIME_ASSIGNMENT ( #171, #10, ( #242 ) ) ;
#169 = DIRECTION ( 'NONE',  ( -4.256963957985708889E-31, -1.000000000000000000, -1.219242935835426903E-16 ) ) ;
#170 = PRODUCT_DEFINITION_FORMATION_WITH_SPECIFIED_SOURCE ( 'ANY', '', #238, .NOT_KNOWN. ) ;
#171 = DATE_AND_TIME ( #103, #212 ) ;
#172 = MANIFOLD_SOLID_BREP ( 'Corps-Déplacer/Copier1[1]', #208 ) ;
#173 = ORIENTED_EDGE ( 'NONE', *, *, #48, .F. ) ;
#174 =( LENGTH_UNIT ( ) NAMED_UNIT ( * ) SI_UNIT ( .MILLI., .METRE. ) );
#175 = PERSON_AND_ORGANIZATION_ROLE ( 'creator' ) ;
#176 = ORIENTED_EDGE ( 'NONE', *, *, #74, .F. ) ;
#177 = COORDINATED_UNIVERSAL_TIME_OFFSET ( 1, 0, .AHEAD. ) ;
#178 = EDGE_LOOP ( 'NONE', ( #88 ) ) ;
#179 = EDGE_LOOP ( 'NONE', ( #176 ) ) ;
#180 = CC_DESIGN_PERSON_AND_ORGANIZATION_ASSIGNMENT ( #239, #175, ( #24 ) ) ;
#181 = EDGE_LOOP ( 'NONE', ( #240 ) ) ;
#182 = AXIS2_PLACEMENT_3D ( 'NONE', #81, #194, #82 ) ;
#183 = FACE_OUTER_BOUND ( 'NONE', #199, .T. ) ;
#184 = APPLICATION_CONTEXT ( 'configuration controlled 3d designs of mechanical parts and assemblies' ) ;
#185 = FACE_OUTER_BOUND ( 'NONE', #18, .T. ) ;
#186 = DIRECTION ( 'NONE',  ( -3.491481338843133355E-15, 1.224646799147353207E-16, -1.000000000000000000 ) ) ;
#187 = CIRCLE ( 'NONE', #182, 1.499999999999997558 ) ;
#188 = DIRECTION ( 'NONE',  ( 0.0000000000000000000, -1.000000000000000000, 0.0000000000000000000 ) ) ;
#189 = FACE_OUTER_BOUND ( 'NONE', #14, .T. ) ;
#190 = FACE_BOUND ( 'NONE', #214, .T. ) ;
#191 = LOCAL_TIME ( 13, 23, 31.00000000000000000, #38 ) ;
#192 = CARTESIAN_POINT ( 'NONE',  ( 8.379555213223516897E-15, 1.124819836996387869E-32, 2.399999999999999467 ) ) ;
#193 = EDGE_CURVE ( 'NONE', #151, #151, #75, .T. ) ;
#194 = DIRECTION ( 'NONE',  ( -3.491481338843133355E-15, 1.224646799147353207E-16, -1.000000000000000000 ) ) ;
#195 = APPROVAL_DATE_TIME ( #72, #161 ) ;
#196 = TOROIDAL_SURFACE ( 'NONE', #128, 2.375000000000000444, 2.000000000000000000 ) ;
#197 = PRODUCT_DEFINITION_SHAPE ( 'NONE', 'NONE',  #24 ) ;
#198 = APPROVAL_STATUS ( 'not_yet_approved' ) ;
#199 = EDGE_LOOP ( 'NONE', ( #37 ) ) ;
#200 = CONICAL_SURFACE ( 'NONE', #1, 1.199999999999997957, 0.7853981633974450594 ) ;
#201 = CC_DESIGN_APPROVAL ( #127, ( #242 ) ) ;
#202 = FACE_OUTER_BOUND ( 'NONE', #179, .T. ) ;
#203 = CARTESIAN_POINT ( 'NONE',  ( 8.379555213223515320E-15, -4.336808689942017736E-16, 2.399999999999999023 ) ) ;
#204 = DESIGN_CONTEXT ( 'detailed design', #184, 'design' ) ;
#205 = DIRECTION ( 'NONE',  ( 0.0000000000000000000, -1.000000000000000000, 0.0000000000000000000 ) ) ;
#206 = FACE_OUTER_BOUND ( 'NONE', #33, .T. ) ;
#207 = VERTEX_POINT ( 'NONE', #115 ) ;
#208 = CLOSED_SHELL ( 'NONE', ( #67, #225, #51, #167, #23, #28 ) ) ;
#209 = DIRECTION ( 'NONE',  ( 3.491481338843133355E-15, -1.224646799147353207E-16, 1.000000000000000000 ) ) ;
#210 = VERTEX_POINT ( 'NONE', #231 ) ;
#211 = APPROVAL_STATUS ( 'not_yet_approved' ) ;
#212 = LOCAL_TIME ( 13, 23, 31.00000000000000000, #45 ) ;
#213 = PERSON_AND_ORGANIZATION ( #230, #226 ) ;
#214 = EDGE_LOOP ( 'NONE', ( #71 ) ) ;
#215 = PERSON_AND_ORGANIZATION ( #230, #226 ) ;
#216 = AXIS2_PLACEMENT_3D ( 'NONE', #134, #235, #46 ) ;
#217 = ORIENTED_EDGE ( 'NONE', *, *, #74, .T. ) ;
#218 = APPROVAL_ROLE ( '' ) ;
#219 = FACE_OUTER_BOUND ( 'NONE', #181, .T. ) ;
#220 = ADVANCED_FACE ( 'NONE', ( #229, #64 ), #165, .T. ) ;
#221 = EDGE_LOOP ( 'NONE', ( #217 ) ) ;
#222 = AXIS2_PLACEMENT_3D ( 'NONE', #65, #133, #17 ) ;
#223 = CARTESIAN_POINT ( 'NONE',  ( 1.326762908760390423E-13, -4.653657836759941941E-15, 38.00000000000000000 ) ) ;
#224 = SHAPE_DEFINITION_REPRESENTATION ( #197, #93 ) ;
#225 = ADVANCED_FACE ( 'NONE', ( #9, #62 ), #200, .T. ) ;
#226 = ORGANIZATION ( 'UNSPECIFIED', 'UNSPECIFIED', '' ) ;
#227 = DIRECTION ( 'NONE',  ( -3.491481338843133355E-15, 1.224646799147353207E-16, -1.000000000000000000 ) ) ;
#228 = DATE_AND_TIME ( #111, #191 ) ;
#229 = FACE_OUTER_BOUND ( 'NONE', #77, .T. ) ;
#230 = PERSON ( 'UNSPECIFIED', 'UNSPECIFIED', 'UNSPECIFIED', ('UNSPECIFIED'), ('UNSPECIFIED'), ('UNSPECIFIED') ) ;
#231 = CARTESIAN_POINT ( 'NONE',  ( 8.379555213223516897E-15, -0.3750000000000000000, 2.399999999999999467 ) ) ;
#232 = APPROVAL_DATE_TIME ( #228, #127 ) ;
#233 = DIRECTION ( 'NONE',  ( 3.491481338843133355E-15, -1.219242935835426903E-16, 1.000000000000000000 ) ) ;
#234 = DIRECTION ( 'NONE',  ( 0.0000000000000000000, 1.000000000000000000, 0.0000000000000000000 ) ) ;
#235 = DIRECTION ( 'NONE',  ( 0.0000000000000000000, 0.0000000000000000000, 1.000000000000000000 ) ) ;
#236 = CC_DESIGN_DATE_AND_TIME_ASSIGNMENT ( #15, #120, ( #24 ) ) ;
#237 = CLOSED_SHELL ( 'NONE', ( #131, #220, #114 ) ) ;
#238 = PRODUCT ( '57205', '57205', '', ( #34 ) ) ;
#239 = PERSON_AND_ORGANIZATION ( #230, #226 ) ;
#240 = ORIENTED_EDGE ( 'NONE', *, *, #193, .F. ) ;
#241 = CC_DESIGN_PERSON_AND_ORGANIZATION_ASSIGNMENT ( #215, #124, ( #170 ) ) ;
#242 = SECURITY_CLASSIFICATION ( '', '', #156 ) ;
#243 = ORIENTED_EDGE ( 'NONE', *, *, #54, .T. ) ;
ENDSEC;
END-ISO-10303-21;
