ISO-10303-21;
HEADER;
FILE_DESCRIPTION (( 'STEP AP203' ),
    '1' );
FILE_NAME ('57202.STEP',
    '2023-01-19T08:25:25',
    ( '' ),
    ( '' ),
    'SwSTEP 2.0',
    'SolidWorks 2019',
    '' );
FILE_SCHEMA (( 'CONFIG_CONTROL_DESIGN' ));
ENDSEC;

DATA;
#1 = AXIS2_PLACEMENT_3D ( 'NONE', #167, #105, #151 ) ;
#2 = ORIENTED_EDGE ( 'NONE', *, *, #51, .F. ) ;
#3 = EDGE_LOOP ( 'NONE', ( #109 ) ) ;
#4 = PLANE ( 'NONE',  #20 ) ;
#5 = ADVANCED_FACE ( 'NONE', ( #70, #136 ), #171, .T. ) ;
#6 = DIRECTION ( 'NONE',  ( -3.491481338843133355E-15, 1.224646799147353454E-16, -1.000000000000000000 ) ) ;
#7 = PLANE ( 'NONE',  #184 ) ;
#8 = AXIS2_PLACEMENT_3D ( 'NONE', #75, #56, #196 ) ;
#9 =( NAMED_UNIT ( * ) PLANE_ANGLE_UNIT ( ) SI_UNIT ( $, .RADIAN. ) );
#10 = APPROVAL_DATE_TIME ( #201, #11 ) ;
#11 = APPROVAL ( #27, 'UNSPECIFIED' ) ;
#12 = PERSON_AND_ORGANIZATION ( #110, #174 ) ;
#13 = MANIFOLD_SOLID_BREP ( 'Corps-Déplacer/Copier1[1]', #57 ) ;
#14 = AXIS2_PLACEMENT_3D ( 'NONE', #40, #6, #182 ) ;
#15 = AXIS2_PLACEMENT_3D ( 'NONE', #124, #24, #93 ) ;
#16 = ORIENTED_EDGE ( 'NONE', *, *, #17, .F. ) ;
#17 = EDGE_CURVE ( 'NONE', #198, #198, #206, .T. ) ;
#18 = CONICAL_SURFACE ( 'NONE', #165, 9.000000000000000000, 0.7853981633974415066 ) ;
#19 = EDGE_LOOP ( 'NONE', ( #91 ) ) ;
#20 = AXIS2_PLACEMENT_3D ( 'NONE', #126, #77, #147 ) ;
#21 = CARTESIAN_POINT ( 'NONE',  ( 1.117274028429802674E-13, 9.999999999999987566, 32.00000000000000000 ) ) ;
#22 = DIRECTION ( 'NONE',  ( 0.000000000000000000, 1.000000000000000000, 0.000000000000000000 ) ) ;
#23 = CARTESIAN_POINT ( 'NONE',  ( 3.596225779008426472E-13, 9.999999999999987566, 102.9999999999999858 ) ) ;
#24 = DIRECTION ( 'NONE',  ( 3.491481338843133355E-15, -1.224646799147353454E-16, 1.000000000000000000 ) ) ;
#25 = CALENDAR_DATE ( 2023, 19, 1 ) ;
#26 = CIRCLE ( 'NONE', #14, 9.999999999999991118 ) ;
#27 = APPROVAL_STATUS ( 'not_yet_approved' ) ;
#28 = CALENDAR_DATE ( 2023, 19, 1 ) ;
#29 = CC_DESIGN_PERSON_AND_ORGANIZATION_ASSIGNMENT ( #100, #121, ( #63 ) ) ;
#30 = CIRCLE ( 'NONE', #193, 9.000000000000000000 ) ;
#31 = AXIS2_PLACEMENT_3D ( 'NONE', #178, #145, #212 ) ;
#32 = APPROVAL_DATE_TIME ( #189, #134 ) ;
#33 = DIRECTION ( 'NONE',  ( -3.491481338843133355E-15, 1.224646799147353454E-16, -1.000000000000000000 ) ) ;
#34 = APPLICATION_CONTEXT ( 'configuration controlled 3d designs of mechanical parts and assemblies' ) ;
#35 = APPROVAL_STATUS ( 'not_yet_approved' ) ;
#36 = ORIENTED_EDGE ( 'NONE', *, *, #195, .F. ) ;
#37 = FACE_OUTER_BOUND ( 'NONE', #89, .T. ) ;
#38 = AXIS2_PLACEMENT_3D ( 'NONE', #137, #52, #44 ) ;
#39 = CARTESIAN_POINT ( 'NONE',  ( 1.117274028429802674E-13, 9.999999999999987566, 32.00000000000000000 ) ) ;
#40 = CARTESIAN_POINT ( 'NONE',  ( 1.117274028429802674E-13, -3.918869757271531052E-15, 32.00000000000000000 ) ) ;
#41 = CC_DESIGN_PERSON_AND_ORGANIZATION_ASSIGNMENT ( #168, #133, ( #74 ) ) ;
#42 = CONICAL_SURFACE ( 'NONE', #220, 10.00000000000000000, 0.7853981633974447263 ) ;
#43 = CIRCLE ( 'NONE', #49, 9.800000000000000711 ) ;
#44 = DIRECTION ( 'NONE',  ( 0.000000000000000000, 1.000000000000000000, 0.000000000000000000 ) ) ;
#45 = APPLICATION_CONTEXT ( 'configuration controlled 3d designs of mechanical parts and assemblies' ) ;
#46 = PERSON_AND_ORGANIZATION_ROLE ( 'creator' ) ;
#47 = PERSON_AND_ORGANIZATION ( #110, #174 ) ;
#48 = APPROVAL_PERSON_ORGANIZATION ( #106, #134, #205 ) ;
#49 = AXIS2_PLACEMENT_3D ( 'NONE', #175, #194, #60 ) ;
#50 = ORIENTED_EDGE ( 'NONE', *, *, #207, .F. ) ;
#51 = EDGE_CURVE ( 'NONE', #179, #179, #152, .T. ) ;
#52 = DIRECTION ( 'NONE',  ( -3.491481338843133355E-15, 1.224646799147353454E-16, -1.000000000000000000 ) ) ;
#53 = PRODUCT_RELATED_PRODUCT_CATEGORY ( 'detail', '', ( #223 ) ) ;
#54 = ORIENTED_EDGE ( 'NONE', *, *, #113, .T. ) ;
#55 = FACE_OUTER_BOUND ( 'NONE', #155, .T. ) ;
#56 = DIRECTION ( 'NONE',  ( -3.491481338843133355E-15, 1.224646799147353454E-16, -1.000000000000000000 ) ) ;
#57 = CLOSED_SHELL ( 'NONE', ( #146, #5, #96, #123 ) ) ;
#58 = CARTESIAN_POINT ( 'NONE',  ( 6.982962677686190783E-16, -10.00000000000000000, 0.1999999999999978184 ) ) ;
#59 = PRODUCT_DEFINITION ( 'UNKNOWN', '', #63, #141 ) ;
#60 = DIRECTION ( 'NONE',  ( -4.282846870592448247E-31, -1.000000000000000000, -1.226656096638776894E-16 ) ) ;
#61 = PRODUCT_DEFINITION_SHAPE ( 'NONE', 'NONE',  #59 ) ;
#62 = CYLINDRICAL_SURFACE ( 'NONE', #31, 9.999999999999989342 ) ;
#63 = PRODUCT_DEFINITION_FORMATION_WITH_SPECIFIED_SOURCE ( 'ANY', '', #223, .NOT_KNOWN. ) ;
#64 = DATE_AND_TIME ( #150, #216 ) ;
#65 = APPLICATION_PROTOCOL_DEFINITION ( 'international standard', 'config_control_design', 1994, #34 ) ;
#66 =( NAMED_UNIT ( * ) SI_UNIT ( $, .STERADIAN. ) SOLID_ANGLE_UNIT ( ) );
#67 = CARTESIAN_POINT ( 'NONE',  ( 0.000000000000000000, 0.000000000000000000, 0.000000000000000000 ) ) ;
#68 = CC_DESIGN_APPROVAL ( #143, ( #63 ) ) ;
#69 = CC_DESIGN_PERSON_AND_ORGANIZATION_ASSIGNMENT ( #47, #46, ( #59 ) ) ;
#70 = FACE_OUTER_BOUND ( 'NONE', #173, .T. ) ;
#71 = ORIENTED_EDGE ( 'NONE', *, *, #195, .T. ) ;
#72 = ADVANCED_FACE ( 'NONE', ( #217 ), #85, .F. ) ;
#73 = LOCAL_TIME ( 9, 25, 25.00000000000000000, #82 ) ;
#74 = SECURITY_CLASSIFICATION ( '', '', #102 ) ;
#75 = CARTESIAN_POINT ( 'NONE',  ( 3.596225779008426472E-13, -1.261386203121773761E-14, 102.9999999999999858 ) ) ;
#76 = DIRECTION ( 'NONE',  ( -4.237045877651918877E-31, -1.000000000000000000, -1.219727444046192488E-16 ) ) ;
#77 = DIRECTION ( 'NONE',  ( 3.491481338843133355E-15, -1.224646799147353454E-16, 1.000000000000000000 ) ) ;
#78 = VERTEX_POINT ( 'NONE', #39 ) ;
#79 = FACE_OUTER_BOUND ( 'NONE', #19, .T. ) ;
#80 = MECHANICAL_CONTEXT ( 'NONE', #34, 'mechanical' ) ;
#81 = CC_DESIGN_SECURITY_CLASSIFICATION ( #74, ( #63 ) ) ;
#82 = COORDINATED_UNIVERSAL_TIME_OFFSET ( 1, 0, .AHEAD. ) ;
#83 = DATE_TIME_ROLE ( 'creation_date' ) ;
#84 = APPROVAL_STATUS ( 'not_yet_approved' ) ;
#85 = PLANE ( 'NONE',  #1 ) ;
#86 = EDGE_LOOP ( 'NONE', ( #144 ) ) ;
#87 = CC_DESIGN_APPROVAL ( #134, ( #74 ) ) ;
#88 = EDGE_LOOP ( 'NONE', ( #221 ) ) ;
#89 = EDGE_LOOP ( 'NONE', ( #54 ) ) ;
#90 = MANIFOLD_SOLID_BREP ( 'Corps-Déplacer/Copier1[2]', #103 ) ;
#91 = ORIENTED_EDGE ( 'NONE', *, *, #113, .F. ) ;
#92 = VERTEX_POINT ( 'NONE', #23 ) ;
#93 = DIRECTION ( 'NONE',  ( -4.275831445896959482E-31, -1.000000000000000000, -1.224646799147353454E-16 ) ) ;
#94 = FACE_OUTER_BOUND ( 'NONE', #139, .T. ) ;
#95 = FACE_OUTER_BOUND ( 'NONE', #86, .T. ) ;
#96 = ADVANCED_FACE ( 'NONE', ( #95, #114 ), #18, .T. ) ;
#97 = DIRECTION ( 'NONE',  ( 1.000000000000000000, 0.000000000000000000, 0.000000000000000000 ) ) ;
#98 = PERSON_AND_ORGANIZATION ( #110, #174 ) ;
#99 = LOCAL_TIME ( 9, 25, 25.00000000000000000, #204 ) ;
#100 = PERSON_AND_ORGANIZATION ( #110, #174 ) ;
#101 = ADVANCED_FACE ( 'NONE', ( #210, #55 ), #42, .T. ) ;
#102 = SECURITY_CLASSIFICATION_LEVEL ( 'unclassified' ) ;
#103 = CLOSED_SHELL ( 'NONE', ( #180, #161, #101, #72 ) ) ;
#104 = APPROVAL_PERSON_ORGANIZATION ( #219, #11, #163 ) ;
#105 = DIRECTION ( 'NONE',  ( 3.491481338843133355E-15, -1.224646799147353454E-16, 1.000000000000000000 ) ) ;
#106 = PERSON_AND_ORGANIZATION ( #110, #174 ) ;
#107 = EDGE_LOOP ( 'NONE', ( #50 ) ) ;
#108 = ORIENTED_EDGE ( 'NONE', *, *, #51, .T. ) ;
#109 = ORIENTED_EDGE ( 'NONE', *, *, #138, .T. ) ;
#110 = PERSON ( 'UNSPECIFIED', 'UNSPECIFIED', 'UNSPECIFIED', ('UNSPECIFIED'), ('UNSPECIFIED'), ('UNSPECIFIED') ) ;
#111 = LOCAL_TIME ( 9, 25, 25.00000000000000000, #172 ) ;
#112 = DIRECTION ( 'NONE',  ( 4.275831445896959482E-31, 1.000000000000000000, 1.224646799147353454E-16 ) ) ;
#113 = EDGE_CURVE ( 'NONE', #78, #78, #26, .T. ) ;
#114 = FACE_BOUND ( 'NONE', #209, .T. ) ;
#115 = CARTESIAN_POINT ( 'NONE',  ( 3.631140592396858689E-13, 6.748919021978343909E-32, 104.0000000000000000 ) ) ;
#116 = CARTESIAN_POINT ( 'NONE',  ( 6.982962677686233184E-16, -2.453312193277543928E-17, 0.1999999999999990397 ) ) ;
#117 = DIRECTION ( 'NONE',  ( -3.491481338843133355E-15, 1.224646799147353454E-16, -1.000000000000000000 ) ) ;
#118 = COORDINATED_UNIVERSAL_TIME_OFFSET ( 1, 0, .AHEAD. ) ;
#119 = CC_DESIGN_PERSON_AND_ORGANIZATION_ASSIGNMENT ( #12, #186, ( #63 ) ) ;
#120 = DIRECTION ( 'NONE',  ( 0.000000000000000000, 0.000000000000000000, 1.000000000000000000 ) ) ;
#121 = PERSON_AND_ORGANIZATION_ROLE ( 'creator' ) ;
#122 = ORIENTED_EDGE ( 'NONE', *, *, #207, .T. ) ;
#123 = ADVANCED_FACE ( 'NONE', ( #162 ), #7, .F. ) ;
#124 = CARTESIAN_POINT ( 'NONE',  ( 1.117274028429802674E-13, 7.498798913309280376E-32, 32.00000000000000000 ) ) ;
#125 = AXIS2_PLACEMENT_3D ( 'NONE', #116, #128, #215 ) ;
#126 = CARTESIAN_POINT ( 'NONE',  ( 1.117274028429802674E-13, 7.498798913309280376E-32, 32.00000000000000000 ) ) ;
#127 = CARTESIAN_POINT ( 'NONE',  ( 3.631140592396858689E-13, -1.273632671113247592E-14, 104.0000000000000000 ) ) ;
#128 = DIRECTION ( 'NONE',  ( 3.491481338843133355E-15, -1.226656096638776648E-16, 1.000000000000000000 ) ) ;
#129 = DIRECTION ( 'NONE',  ( -3.491481338843133355E-15, 1.224646799147353454E-16, -1.000000000000000000 ) ) ;
#130 = APPROVAL_DATE_TIME ( #218, #143 ) ;
#131 = APPLICATION_PROTOCOL_DEFINITION ( 'international standard', 'config_control_design', 1994, #45 ) ;
#132 = CALENDAR_DATE ( 2023, 19, 1 ) ;
#133 = PERSON_AND_ORGANIZATION_ROLE ( 'classification_officer' ) ;
#134 = APPROVAL ( #35, 'UNSPECIFIED' ) ;
#135 =( GEOMETRIC_REPRESENTATION_CONTEXT ( 3 ) GLOBAL_UNCERTAINTY_ASSIGNED_CONTEXT ( ( #177 ) ) GLOBAL_UNIT_ASSIGNED_CONTEXT ( ( #164, #9, #66 ) ) REPRESENTATION_CONTEXT ( 'NONE', 'WORKASPACE' ) );
#136 = FACE_OUTER_BOUND ( 'NONE', #3, .T. ) ;
#137 = CARTESIAN_POINT ( 'NONE',  ( 1.117274028429802674E-13, -3.918869757271531052E-15, 32.00000000000000000 ) ) ;
#138 = EDGE_CURVE ( 'NONE', #92, #92, #140, .T. ) ;
#139 = EDGE_LOOP ( 'NONE', ( #108 ) ) ;
#140 = CIRCLE ( 'NONE', #8, 10.00000000000000000 ) ;
#141 = DESIGN_CONTEXT ( 'detailed design', #45, 'design' ) ;
#142 = FACE_OUTER_BOUND ( 'NONE', #88, .T. ) ;
#143 = APPROVAL ( #84, 'UNSPECIFIED' ) ;
#144 = ORIENTED_EDGE ( 'NONE', *, *, #138, .F. ) ;
#145 = DIRECTION ( 'NONE',  ( -3.491481338843133355E-15, 1.224646799147353454E-16, -1.000000000000000000 ) ) ;
#146 = ADVANCED_FACE ( 'NONE', ( #142 ), #158, .F. ) ;
#147 = DIRECTION ( 'NONE',  ( -4.275831445896959482E-31, -1.000000000000000000, -1.224646799147353454E-16 ) ) ;
#148 = LOCAL_TIME ( 9, 25, 25.00000000000000000, #202 ) ;
#149 = AXIS2_PLACEMENT_3D ( 'NONE', #191, #33, #222 ) ;
#150 = CALENDAR_DATE ( 2023, 19, 1 ) ;
#151 = DIRECTION ( 'NONE',  ( -4.275831445896959482E-31, -1.000000000000000000, -1.224646799147353454E-16 ) ) ;
#152 = CIRCLE ( 'NONE', #125, 10.00000000000000000 ) ;
#153 = CALENDAR_DATE ( 2023, 19, 1 ) ;
#154 = CC_DESIGN_DATE_AND_TIME_ASSIGNMENT ( #64, #83, ( #59 ) ) ;
#155 = EDGE_LOOP ( 'NONE', ( #2 ) ) ;
#156 = DATE_TIME_ROLE ( 'classification_date' ) ;
#157 = EDGE_LOOP ( 'NONE', ( #36 ) ) ;
#158 = PLANE ( 'NONE',  #15 ) ;
#159 = DIRECTION ( 'NONE',  ( 3.491481338843133355E-15, -1.226656096638776648E-16, 1.000000000000000000 ) ) ;
#160 = VERTEX_POINT ( 'NONE', #213 ) ;
#161 = ADVANCED_FACE ( 'NONE', ( #79 ), #4, .T. ) ;
#162 = FACE_OUTER_BOUND ( 'NONE', #107, .T. ) ;
#163 = APPROVAL_ROLE ( '' ) ;
#164 =( LENGTH_UNIT ( ) NAMED_UNIT ( * ) SI_UNIT ( .MILLI., .METRE. ) );
#165 = AXIS2_PLACEMENT_3D ( 'NONE', #211, #117, #192 ) ;
#166 = CARTESIAN_POINT ( 'NONE',  ( 3.631140592396858689E-13, 8.999999999999987566, 104.0000000000000000 ) ) ;
#167 = CARTESIAN_POINT ( 'NONE',  ( -1.710328862951406993E-30, 5.999026098752630790E-32, -4.898576555239751833E-16 ) ) ;
#168 = PERSON_AND_ORGANIZATION ( #110, #174 ) ;
#169 = APPROVAL_PERSON_ORGANIZATION ( #183, #143, #185 ) ;
#170 = SHAPE_DEFINITION_REPRESENTATION ( #61, #199 ) ;
#171 = CYLINDRICAL_SURFACE ( 'NONE', #149, 9.999999999999994671 ) ;
#172 = COORDINATED_UNIVERSAL_TIME_OFFSET ( 1, 0, .AHEAD. ) ;
#173 = EDGE_LOOP ( 'NONE', ( #16 ) ) ;
#174 = ORGANIZATION ( 'UNSPECIFIED', 'UNSPECIFIED', '' ) ;
#175 = CARTESIAN_POINT ( 'NONE',  ( -4.197189933180599807E-30, 1.208602834858988389E-31, -1.202122974706001356E-15 ) ) ;
#176 = AXIS2_PLACEMENT_3D ( 'NONE', #67, #120, #97 ) ;
#177 = UNCERTAINTY_MEASURE_WITH_UNIT (LENGTH_MEASURE( 1.000000000000000082E-05 ), #164, 'distance_accuracy_value', 'NONE');
#178 = CARTESIAN_POINT ( 'NONE',  ( 0.000000000000000000, 0.000000000000000000, 0.000000000000000000 ) ) ;
#179 = VERTEX_POINT ( 'NONE', #58 ) ;
#180 = ADVANCED_FACE ( 'NONE', ( #37, #94 ), #62, .T. ) ;
#181 = DIRECTION ( 'NONE',  ( -3.491481338843133355E-15, 1.224646799147353454E-16, -1.000000000000000000 ) ) ;
#182 = DIRECTION ( 'NONE',  ( 0.000000000000000000, 1.000000000000000000, 0.000000000000000000 ) ) ;
#183 = PERSON_AND_ORGANIZATION ( #110, #174 ) ;
#184 = AXIS2_PLACEMENT_3D ( 'NONE', #115, #181, #112 ) ;
#185 = APPROVAL_ROLE ( '' ) ;
#186 = PERSON_AND_ORGANIZATION_ROLE ( 'design_supplier' ) ;
#187 = CC_DESIGN_DATE_AND_TIME_ASSIGNMENT ( #190, #156, ( #74 ) ) ;
#188 = VERTEX_POINT ( 'NONE', #166 ) ;
#189 = DATE_AND_TIME ( #153, #111 ) ;
#190 = DATE_AND_TIME ( #25, #99 ) ;
#191 = CARTESIAN_POINT ( 'NONE',  ( 0.000000000000000000, 0.000000000000000000, 0.000000000000000000 ) ) ;
#192 = DIRECTION ( 'NONE',  ( 0.000000000000000000, 1.000000000000000000, 0.000000000000000000 ) ) ;
#193 = AXIS2_PLACEMENT_3D ( 'NONE', #127, #129, #22 ) ;
#194 = DIRECTION ( 'NONE',  ( 3.491481338843133355E-15, -1.226656096638776648E-16, 1.000000000000000000 ) ) ;
#195 = EDGE_CURVE ( 'NONE', #160, #160, #43, .T. ) ;
#196 = DIRECTION ( 'NONE',  ( 0.000000000000000000, 1.000000000000000000, 0.000000000000000000 ) ) ;
#197 = CC_DESIGN_APPROVAL ( #11, ( #59 ) ) ;
#198 = VERTEX_POINT ( 'NONE', #21 ) ;
#199 = ADVANCED_BREP_SHAPE_REPRESENTATION ( '57202', ( #13, #90, #176 ), #135 ) ;
#200 = PERSON_AND_ORGANIZATION_ROLE ( 'design_owner' ) ;
#201 = DATE_AND_TIME ( #132, #73 ) ;
#202 = COORDINATED_UNIVERSAL_TIME_OFFSET ( 1, 0, .AHEAD. ) ;
#203 = CC_DESIGN_PERSON_AND_ORGANIZATION_ASSIGNMENT ( #98, #200, ( #223 ) ) ;
#204 = COORDINATED_UNIVERSAL_TIME_OFFSET ( 1, 0, .AHEAD. ) ;
#205 = APPROVAL_ROLE ( '' ) ;
#206 = CIRCLE ( 'NONE', #38, 9.999999999999991118 ) ;
#207 = EDGE_CURVE ( 'NONE', #188, #188, #30, .T. ) ;
#208 = EDGE_LOOP ( 'NONE', ( #71 ) ) ;
#209 = EDGE_LOOP ( 'NONE', ( #122 ) ) ;
#210 = FACE_BOUND ( 'NONE', #208, .T. ) ;
#211 = CARTESIAN_POINT ( 'NONE',  ( 3.631140592396858689E-13, -1.273632671113247592E-14, 104.0000000000000000 ) ) ;
#212 = DIRECTION ( 'NONE',  ( 4.275831445896960358E-31, 1.000000000000000000, 1.224646799147353454E-16 ) ) ;
#213 = CARTESIAN_POINT ( 'NONE',  ( -8.394379866361199614E-30, -9.800000000000000711, -2.404245949412002713E-15 ) ) ;
#214 = CARTESIAN_POINT ( 'NONE',  ( 6.982962677686233184E-16, -2.453312193277543928E-17, 0.1999999999999990397 ) ) ;
#215 = DIRECTION ( 'NONE',  ( -4.237045877651918877E-31, -1.000000000000000000, -1.219727444046192488E-16 ) ) ;
#216 = LOCAL_TIME ( 9, 25, 25.00000000000000000, #118 ) ;
#217 = FACE_OUTER_BOUND ( 'NONE', #157, .T. ) ;
#218 = DATE_AND_TIME ( #28, #148 ) ;
#219 = PERSON_AND_ORGANIZATION ( #110, #174 ) ;
#220 = AXIS2_PLACEMENT_3D ( 'NONE', #214, #159, #76 ) ;
#221 = ORIENTED_EDGE ( 'NONE', *, *, #17, .T. ) ;
#222 = DIRECTION ( 'NONE',  ( 4.275831445896959482E-31, 1.000000000000000000, 1.224646799147353454E-16 ) ) ;
#223 = PRODUCT ( '57202', '57202', '', ( #80 ) ) ;
ENDSEC;
END-ISO-10303-21;
