ISO-10303-21;
HEADER;
FILE_DESCRIPTION (( 'STEP AP203' ),
    '1' );
FILE_NAME ('57201.STEP',
    '2023-01-19T08:25:37',
    ( '' ),
    ( '' ),
    'SwSTEP 2.0',
    'SolidWorks 2019',
    '' );
FILE_SCHEMA (( 'CONFIG_CONTROL_DESIGN' ));
ENDSEC;

DATA;
#1 = ORIENTED_EDGE ( 'NONE', *, *, #25, .F. ) ;
#2 = PERSON_AND_ORGANIZATION ( #87, #178 ) ;
#3 = APPLICATION_CONTEXT ( 'configuration controlled 3d designs of mechanical parts and assemblies' ) ;
#4 = EDGE_CURVE ( 'NONE', #222, #222, #35, .T. ) ;
#5 = PRODUCT ( '57201', '57201', '', ( #67 ) ) ;
#6 = CC_DESIGN_APPROVAL ( #176, ( #88 ) ) ;
#7 = PLANE ( 'NONE',  #73 ) ;
#8 = FACE_OUTER_BOUND ( 'NONE', #130, .T. ) ;
#9 = DIRECTION ( 'NONE',  ( 3.491481338843133355E-15, -1.226656096638776648E-16, 1.000000000000000000 ) ) ;
#10 =( GEOMETRIC_REPRESENTATION_CONTEXT ( 3 ) GLOBAL_UNCERTAINTY_ASSIGNED_CONTEXT ( ( #160 ) ) GLOBAL_UNIT_ASSIGNED_CONTEXT ( ( #171, #206, #189 ) ) REPRESENTATION_CONTEXT ( 'NONE', 'WORKASPACE' ) );
#11 = ORIENTED_EDGE ( 'NONE', *, *, #149, .T. ) ;
#12 = CARTESIAN_POINT ( 'NONE',  ( -6.681241118124219615E-30, -7.800000000000002487, -1.913583510756491955E-15 ) ) ;
#13 = APPROVAL ( #209, 'UNSPECIFIED' ) ;
#14 = CARTESIAN_POINT ( 'NONE',  ( -3.340620559062109808E-30, 9.076657989747723686E-32, -9.567917553782459775E-16 ) ) ;
#15 = EDGE_LOOP ( 'NONE', ( #66 ) ) ;
#16 = APPROVAL_DATE_TIME ( #118, #185 ) ;
#17 = PERSON_AND_ORGANIZATION ( #87, #178 ) ;
#18 = LOCAL_TIME ( 9, 25, 37.00000000000000000, #71 ) ;
#19 = EDGE_LOOP ( 'NONE', ( #62 ) ) ;
#20 = PERSON_AND_ORGANIZATION_ROLE ( 'design_supplier' ) ;
#21 = CARTESIAN_POINT ( 'NONE',  ( -2.137919438355851023E-30, 7.498811945204074543E-32, -6.123244637086414459E-16 ) ) ;
#22 = CALENDAR_DATE ( 2023, 19, 1 ) ;
#23 = DIRECTION ( 'NONE',  ( 3.491481338843133355E-15, -1.226656096638776648E-16, 1.000000000000000000 ) ) ;
#24 = EDGE_LOOP ( 'NONE', ( #116 ) ) ;
#25 = EDGE_CURVE ( 'NONE', #39, #39, #143, .T. ) ;
#26 = DIRECTION ( 'NONE',  ( 0.000000000000000000, 1.000000000000000000, 0.000000000000000000 ) ) ;
#27 = APPLICATION_CONTEXT ( 'configuration controlled 3d designs of mechanical parts and assemblies' ) ;
#28 = EDGE_LOOP ( 'NONE', ( #79 ) ) ;
#29 = CARTESIAN_POINT ( 'NONE',  ( 9.077851480992146724E-14, -3.184081677783118191E-15, 26.00000000000000000 ) ) ;
#30 = PERSON_AND_ORGANIZATION_ROLE ( 'creator' ) ;
#31 = PERSON_AND_ORGANIZATION ( #87, #178 ) ;
#32 = CC_DESIGN_PERSON_AND_ORGANIZATION_ASSIGNMENT ( #31, #30, ( #165 ) ) ;
#33 = ADVANCED_FACE ( 'NONE', ( #81, #153 ), #104, .T. ) ;
#34 = CARTESIAN_POINT ( 'NONE',  ( 0.000000000000000000, 0.000000000000000000, 0.000000000000000000 ) ) ;
#35 = CIRCLE ( 'NONE', #69, 7.999999999999998224 ) ;
#36 = DIRECTION ( 'NONE',  ( 3.491481338843133355E-15, -1.224646799147353207E-16, 1.000000000000000000 ) ) ;
#37 = ADVANCED_FACE ( 'NONE', ( #100, #41 ), #212, .T. ) ;
#38 = PERSON_AND_ORGANIZATION ( #87, #178 ) ;
#39 = VERTEX_POINT ( 'NONE', #150 ) ;
#40 = CARTESIAN_POINT ( 'NONE',  ( 3.177248018347251480E-13, 7.999999999999988454, 91.00000000000000000 ) ) ;
#41 = FACE_OUTER_BOUND ( 'NONE', #28, .T. ) ;
#42 = ORIENTED_EDGE ( 'NONE', *, *, #4, .F. ) ;
#43 = CARTESIAN_POINT ( 'NONE',  ( 3.212162831735682182E-13, -1.126675055215564941E-14, 92.00000000000000000 ) ) ;
#44 = DIRECTION ( 'NONE',  ( -3.491481338843133355E-15, 1.224646799147353207E-16, -1.000000000000000000 ) ) ;
#45 = COORDINATED_UNIVERSAL_TIME_OFFSET ( 1, 0, .AHEAD. ) ;
#46 = DIRECTION ( 'NONE',  ( 0.000000000000000000, 1.000000000000000000, 0.000000000000000000 ) ) ;
#47 = EDGE_LOOP ( 'NONE', ( #192 ) ) ;
#48 = CIRCLE ( 'NONE', #152, 6.999999999999998224 ) ;
#49 = PERSON_AND_ORGANIZATION ( #87, #178 ) ;
#50 = CC_DESIGN_SECURITY_CLASSIFICATION ( #52, ( #165 ) ) ;
#51 = DIRECTION ( 'NONE',  ( 4.275831445896959482E-31, 1.000000000000000000, 1.224646799147353454E-16 ) ) ;
#52 = SECURITY_CLASSIFICATION ( '', '', #139 ) ;
#53 = LOCAL_TIME ( 9, 25, 37.00000000000000000, #45 ) ;
#54 = CLOSED_SHELL ( 'NONE', ( #136, #158, #37, #63 ) ) ;
#55 = PLANE ( 'NONE',  #187 ) ;
#56 = CARTESIAN_POINT ( 'NONE',  ( 0.000000000000000000, 0.000000000000000000, 0.000000000000000000 ) ) ;
#57 = AXIS2_PLACEMENT_3D ( 'NONE', #183, #23, #221 ) ;
#58 = DATE_AND_TIME ( #131, #181 ) ;
#59 = VERTEX_POINT ( 'NONE', #203 ) ;
#60 = DIRECTION ( 'NONE',  ( -4.282846870592447371E-31, -1.000000000000000000, -1.226656096638776401E-16 ) ) ;
#61 = CARTESIAN_POINT ( 'NONE',  ( 6.982962677686224309E-16, -2.453312193277541154E-17, 0.1999999999999987899 ) ) ;
#62 = ORIENTED_EDGE ( 'NONE', *, *, #199, .T. ) ;
#63 = ADVANCED_FACE ( 'NONE', ( #213 ), #211, .F. ) ;
#64 = AXIS2_PLACEMENT_3D ( 'NONE', #127, #191, #26 ) ;
#65 = VERTEX_POINT ( 'NONE', #202 ) ;
#66 = ORIENTED_EDGE ( 'NONE', *, *, #78, .F. ) ;
#67 = MECHANICAL_CONTEXT ( 'NONE', #27, 'mechanical' ) ;
#68 = DATE_TIME_ROLE ( 'classification_date' ) ;
#69 = AXIS2_PLACEMENT_3D ( 'NONE', #204, #44, #46 ) ;
#70 = ADVANCED_FACE ( 'NONE', ( #8 ), #7, .F. ) ;
#71 = COORDINATED_UNIVERSAL_TIME_OFFSET ( 1, 0, .AHEAD. ) ;
#72 = DATE_AND_TIME ( #174, #18 ) ;
#73 = AXIS2_PLACEMENT_3D ( 'NONE', #108, #91, #163 ) ;
#74 = CC_DESIGN_PERSON_AND_ORGANIZATION_ASSIGNMENT ( #2, #83, ( #52 ) ) ;
#75 = FACE_OUTER_BOUND ( 'NONE', #223, .T. ) ;
#76 = VERTEX_POINT ( 'NONE', #129 ) ;
#77 = PLANE ( 'NONE',  #137 ) ;
#78 = EDGE_CURVE ( 'NONE', #65, #65, #161, .T. ) ;
#79 = ORIENTED_EDGE ( 'NONE', *, *, #145, .F. ) ;
#80 = FACE_BOUND ( 'NONE', #151, .T. ) ;
#81 = FACE_OUTER_BOUND ( 'NONE', #15, .T. ) ;
#82 = PERSON_AND_ORGANIZATION_ROLE ( 'design_owner' ) ;
#83 = PERSON_AND_ORGANIZATION_ROLE ( 'classification_officer' ) ;
#84 = CALENDAR_DATE ( 2023, 19, 1 ) ;
#85 = CC_DESIGN_PERSON_AND_ORGANIZATION_ASSIGNMENT ( #17, #82, ( #5 ) ) ;
#86 = AXIS2_PLACEMENT_3D ( 'NONE', #162, #142, #90 ) ;
#87 = PERSON ( 'UNSPECIFIED', 'UNSPECIFIED', 'UNSPECIFIED', ('UNSPECIFIED'), ('UNSPECIFIED'), ('UNSPECIFIED') ) ;
#88 = PRODUCT_DEFINITION ( 'UNKNOWN', '', #165, #140 ) ;
#89 = CC_DESIGN_APPROVAL ( #13, ( #165 ) ) ;
#90 = DIRECTION ( 'NONE',  ( 0.000000000000000000, 1.000000000000000000, 0.000000000000000000 ) ) ;
#91 = DIRECTION ( 'NONE',  ( -3.491481338843133355E-15, 1.224646799147353207E-16, -1.000000000000000000 ) ) ;
#92 = PERSON_AND_ORGANIZATION ( #87, #178 ) ;
#93 = DIRECTION ( 'NONE',  ( -4.275831445896958607E-31, -1.000000000000000000, -1.224646799147353207E-16 ) ) ;
#94 = EDGE_LOOP ( 'NONE', ( #1 ) ) ;
#95 = CARTESIAN_POINT ( 'NONE',  ( 9.077851480992146724E-14, 5.999039130647419484E-32, 26.00000000000000000 ) ) ;
#96 = ORIENTED_EDGE ( 'NONE', *, *, #199, .F. ) ;
#97 = DATE_AND_TIME ( #126, #53 ) ;
#98 = EDGE_LOOP ( 'NONE', ( #42 ) ) ;
#99 = PERSON_AND_ORGANIZATION ( #87, #178 ) ;
#100 = FACE_BOUND ( 'NONE', #19, .T. ) ;
#101 = DIRECTION ( 'NONE',  ( -3.491481338843133355E-15, 1.224646799147353207E-16, -1.000000000000000000 ) ) ;
#102 = ADVANCED_BREP_SHAPE_REPRESENTATION ( '57201', ( #157, #159, #169 ), #10 ) ;
#103 = COORDINATED_UNIVERSAL_TIME_OFFSET ( 1, 0, .AHEAD. ) ;
#104 = CYLINDRICAL_SURFACE ( 'NONE', #117, 7.999999999999994671 ) ;
#105 = CC_DESIGN_APPROVAL ( #185, ( #52 ) ) ;
#106 = ADVANCED_FACE ( 'NONE', ( #219 ), #55, .F. ) ;
#107 = AXIS2_PLACEMENT_3D ( 'NONE', #144, #123, #51 ) ;
#108 = CARTESIAN_POINT ( 'NONE',  ( 3.212162831735682182E-13, 5.249159239316484111E-32, 92.00000000000000000 ) ) ;
#109 = DIRECTION ( 'NONE',  ( -4.275831445896958607E-31, -1.000000000000000000, -1.224646799147353207E-16 ) ) ;
#110 = FACE_OUTER_BOUND ( 'NONE', #98, .T. ) ;
#111 = VERTEX_POINT ( 'NONE', #12 ) ;
#112 = LOCAL_TIME ( 9, 25, 37.00000000000000000, #210 ) ;
#113 = CC_DESIGN_DATE_AND_TIME_ASSIGNMENT ( #138, #68, ( #52 ) ) ;
#114 = DIRECTION ( 'NONE',  ( 0.000000000000000000, 1.000000000000000000, 0.000000000000000000 ) ) ;
#115 = DIRECTION ( 'NONE',  ( -3.491481338843133355E-15, 1.224646799147353207E-16, -1.000000000000000000 ) ) ;
#116 = ORIENTED_EDGE ( 'NONE', *, *, #25, .T. ) ;
#117 = AXIS2_PLACEMENT_3D ( 'NONE', #34, #120, #128 ) ;
#118 = DATE_AND_TIME ( #22, #112 ) ;
#119 = CC_DESIGN_PERSON_AND_ORGANIZATION_ASSIGNMENT ( #92, #166, ( #88 ) ) ;
#120 = DIRECTION ( 'NONE',  ( -3.491481338843133355E-15, 1.224646799147353207E-16, -1.000000000000000000 ) ) ;
#121 = DIRECTION ( 'NONE',  ( 3.491481338843133355E-15, -1.224646799147353207E-16, 1.000000000000000000 ) ) ;
#122 = CIRCLE ( 'NONE', #57, 8.000000000000000000 ) ;
#123 = DIRECTION ( 'NONE',  ( -3.491481338843133355E-15, 1.224646799147353207E-16, -1.000000000000000000 ) ) ;
#124 = DIRECTION ( 'NONE',  ( 0.000000000000000000, 0.000000000000000000, 1.000000000000000000 ) ) ;
#125 = LOCAL_TIME ( 9, 25, 37.00000000000000000, #103 ) ;
#126 = CALENDAR_DATE ( 2023, 19, 1 ) ;
#127 = CARTESIAN_POINT ( 'NONE',  ( 3.212162831735682182E-13, -1.126675055215564941E-14, 92.00000000000000000 ) ) ;
#128 = DIRECTION ( 'NONE',  ( 4.275831445896957731E-31, 1.000000000000000000, 1.224646799147353207E-16 ) ) ;
#129 = CARTESIAN_POINT ( 'NONE',  ( 6.982962677686189797E-16, -8.000000000000000000, 0.1999999999999978184 ) ) ;
#130 = EDGE_LOOP ( 'NONE', ( #208 ) ) ;
#131 = CALENDAR_DATE ( 2023, 19, 1 ) ;
#132 = CC_DESIGN_PERSON_AND_ORGANIZATION_ASSIGNMENT ( #99, #20, ( #165 ) ) ;
#133 = CONICAL_SURFACE ( 'NONE', #64, 6.999999999999998224, 0.7853981633974479459 ) ;
#134 = APPROVAL_DATE_TIME ( #72, #13 ) ;
#135 = APPROVAL_ROLE ( '' ) ;
#136 = ADVANCED_FACE ( 'NONE', ( #179, #75 ), #216, .T. ) ;
#137 = AXIS2_PLACEMENT_3D ( 'NONE', #95, #148, #93 ) ;
#138 = DATE_AND_TIME ( #84, #125 ) ;
#139 = SECURITY_CLASSIFICATION_LEVEL ( 'unclassified' ) ;
#140 = DESIGN_CONTEXT ( 'detailed design', #3, 'design' ) ;
#141 = AXIS2_PLACEMENT_3D ( 'NONE', #14, #9, #60 ) ;
#142 = DIRECTION ( 'NONE',  ( -3.491481338843133355E-15, 1.224646799147353207E-16, -1.000000000000000000 ) ) ;
#143 = CIRCLE ( 'NONE', #175, 7.999999999999991118 ) ;
#144 = CARTESIAN_POINT ( 'NONE',  ( 0.000000000000000000, 0.000000000000000000, 0.000000000000000000 ) ) ;
#145 = EDGE_CURVE ( 'NONE', #76, #76, #122, .T. ) ;
#146 = APPROVAL_ROLE ( '' ) ;
#147 = EDGE_LOOP ( 'NONE', ( #170 ) ) ;
#148 = DIRECTION ( 'NONE',  ( 3.491481338843133355E-15, -1.224646799147353207E-16, 1.000000000000000000 ) ) ;
#149 = EDGE_CURVE ( 'NONE', #59, #59, #48, .T. ) ;
#150 = CARTESIAN_POINT ( 'NONE',  ( 9.077851480992146724E-14, 7.999999999999988454, 26.00000000000000000 ) ) ;
#151 = EDGE_LOOP ( 'NONE', ( #11 ) ) ;
#152 = AXIS2_PLACEMENT_3D ( 'NONE', #43, #115, #167 ) ;
#153 = FACE_OUTER_BOUND ( 'NONE', #47, .T. ) ;
#154 = PERSON_AND_ORGANIZATION ( #87, #178 ) ;
#155 = DIRECTION ( 'NONE',  ( 1.000000000000000000, 0.000000000000000000, 0.000000000000000000 ) ) ;
#156 = SHAPE_DEFINITION_REPRESENTATION ( #164, #102 ) ;
#157 = MANIFOLD_SOLID_BREP ( 'Corps-Déplacer/Copier1[1]', #188 ) ;
#158 = ADVANCED_FACE ( 'NONE', ( #168 ), #77, .T. ) ;
#159 = MANIFOLD_SOLID_BREP ( 'Corps-Déplacer/Copier1[2]', #54 ) ;
#160 = UNCERTAINTY_MEASURE_WITH_UNIT (LENGTH_MEASURE( 1.000000000000000082E-05 ), #171, 'distance_accuracy_value', 'NONE');
#161 = CIRCLE ( 'NONE', #86, 7.999999999999991118 ) ;
#162 = CARTESIAN_POINT ( 'NONE',  ( 9.077851480992146724E-14, -3.184081677783118191E-15, 26.00000000000000000 ) ) ;
#163 = DIRECTION ( 'NONE',  ( 4.275831445896958607E-31, 1.000000000000000000, 1.224646799147353207E-16 ) ) ;
#164 = PRODUCT_DEFINITION_SHAPE ( 'NONE', 'NONE',  #88 ) ;
#165 = PRODUCT_DEFINITION_FORMATION_WITH_SPECIFIED_SOURCE ( 'ANY', '', #5, .NOT_KNOWN. ) ;
#166 = PERSON_AND_ORGANIZATION_ROLE ( 'creator' ) ;
#167 = DIRECTION ( 'NONE',  ( 0.000000000000000000, 1.000000000000000000, 0.000000000000000000 ) ) ;
#168 = FACE_OUTER_BOUND ( 'NONE', #94, .T. ) ;
#169 = AXIS2_PLACEMENT_3D ( 'NONE', #56, #124, #155 ) ;
#170 = ORIENTED_EDGE ( 'NONE', *, *, #78, .T. ) ;
#171 =( LENGTH_UNIT ( ) NAMED_UNIT ( * ) SI_UNIT ( .MILLI., .METRE. ) );
#172 = DATE_TIME_ROLE ( 'creation_date' ) ;
#173 = EDGE_LOOP ( 'NONE', ( #96 ) ) ;
#174 = CALENDAR_DATE ( 2023, 19, 1 ) ;
#175 = AXIS2_PLACEMENT_3D ( 'NONE', #29, #101, #114 ) ;
#176 = APPROVAL ( #184, 'UNSPECIFIED' ) ;
#177 = APPROVAL_STATUS ( 'not_yet_approved' ) ;
#178 = ORGANIZATION ( 'UNSPECIFIED', 'UNSPECIFIED', '' ) ;
#179 = FACE_OUTER_BOUND ( 'NONE', #24, .T. ) ;
#180 = PRODUCT_RELATED_PRODUCT_CATEGORY ( 'detail', '', ( #5 ) ) ;
#181 = LOCAL_TIME ( 9, 25, 37.00000000000000000, #182 ) ;
#182 = COORDINATED_UNIVERSAL_TIME_OFFSET ( 1, 0, .AHEAD. ) ;
#183 = CARTESIAN_POINT ( 'NONE',  ( 6.982962677686224309E-16, -2.453312193277541154E-17, 0.1999999999999987899 ) ) ;
#184 = APPROVAL_STATUS ( 'not_yet_approved' ) ;
#185 = APPROVAL ( #177, 'UNSPECIFIED' ) ;
#186 = DIRECTION ( 'NONE',  ( 3.491481338843133355E-15, -1.226656096638776648E-16, 1.000000000000000000 ) ) ;
#187 = AXIS2_PLACEMENT_3D ( 'NONE', #198, #36, #109 ) ;
#188 = CLOSED_SHELL ( 'NONE', ( #106, #33, #193, #70 ) ) ;
#189 =( NAMED_UNIT ( * ) SI_UNIT ( $, .STERADIAN. ) SOLID_ANGLE_UNIT ( ) );
#190 = ORIENTED_EDGE ( 'NONE', *, *, #145, .T. ) ;
#191 = DIRECTION ( 'NONE',  ( -3.491481338843133355E-15, 1.224646799147353207E-16, -1.000000000000000000 ) ) ;
#192 = ORIENTED_EDGE ( 'NONE', *, *, #4, .T. ) ;
#193 = ADVANCED_FACE ( 'NONE', ( #110, #80 ), #133, .T. ) ;
#194 = CIRCLE ( 'NONE', #141, 7.800000000000002487 ) ;
#195 = APPROVAL_ROLE ( '' ) ;
#196 = APPROVAL_PERSON_ORGANIZATION ( #38, #176, #146 ) ;
#197 = AXIS2_PLACEMENT_3D ( 'NONE', #61, #186, #214 ) ;
#198 = CARTESIAN_POINT ( 'NONE',  ( 9.077851480992146724E-14, 5.999039130647419484E-32, 26.00000000000000000 ) ) ;
#199 = EDGE_CURVE ( 'NONE', #111, #111, #194, .T. ) ;
#200 = APPLICATION_PROTOCOL_DEFINITION ( 'international standard', 'config_control_design', 1994, #3 ) ;
#201 = AXIS2_PLACEMENT_3D ( 'NONE', #21, #121, #215 ) ;
#202 = CARTESIAN_POINT ( 'NONE',  ( 9.077851480992146724E-14, 7.999999999999988454, 26.00000000000000000 ) ) ;
#203 = CARTESIAN_POINT ( 'NONE',  ( 3.212162831735682182E-13, 6.999999999999987566, 92.00000000000000000 ) ) ;
#204 = CARTESIAN_POINT ( 'NONE',  ( 3.177248018347251480E-13, -1.114428587224091426E-14, 91.00000000000000000 ) ) ;
#205 = APPROVAL_DATE_TIME ( #58, #176 ) ;
#206 =( NAMED_UNIT ( * ) PLANE_ANGLE_UNIT ( ) SI_UNIT ( $, .RADIAN. ) );
#207 = APPROVAL_PERSON_ORGANIZATION ( #154, #13, #135 ) ;
#208 = ORIENTED_EDGE ( 'NONE', *, *, #149, .F. ) ;
#209 = APPROVAL_STATUS ( 'not_yet_approved' ) ;
#210 = COORDINATED_UNIVERSAL_TIME_OFFSET ( 1, 0, .AHEAD. ) ;
#211 = PLANE ( 'NONE',  #201 ) ;
#212 = CONICAL_SURFACE ( 'NONE', #197, 8.000000000000000000, 0.7853981633974437271 ) ;
#213 = FACE_OUTER_BOUND ( 'NONE', #173, .T. ) ;
#214 = DIRECTION ( 'NONE',  ( -4.333342374871280669E-31, -1.000000000000000000, -1.219727444046192488E-16 ) ) ;
#215 = DIRECTION ( 'NONE',  ( -4.275831445896958607E-31, -1.000000000000000000, -1.224646799147353207E-16 ) ) ;
#216 = CYLINDRICAL_SURFACE ( 'NONE', #107, 7.999999999999989342 ) ;
#217 = APPROVAL_PERSON_ORGANIZATION ( #49, #185, #195 ) ;
#218 = CC_DESIGN_DATE_AND_TIME_ASSIGNMENT ( #97, #172, ( #88 ) ) ;
#219 = FACE_OUTER_BOUND ( 'NONE', #147, .T. ) ;
#220 = APPLICATION_PROTOCOL_DEFINITION ( 'international standard', 'config_control_design', 1994, #27 ) ;
#221 = DIRECTION ( 'NONE',  ( -4.333342374871280669E-31, -1.000000000000000000, -1.219727444046192488E-16 ) ) ;
#222 = VERTEX_POINT ( 'NONE', #40 ) ;
#223 = EDGE_LOOP ( 'NONE', ( #190 ) ) ;
ENDSEC;
END-ISO-10303-21;
